Song name
# A B C D E F G H I J K L M N O P Q R S T U V W X Y Z

Disturbed - Voices tab


INTRO:(1 GUITAR WITH DISTORSION AND ONE WITHOUT DISTORSION SOUDNS COOL)

      ------------
      ------------
      ------------  
      -9---7-9----
      -7---7-8----
      -7---7-7----

RIFF 1:(REPEAT IT)

      -------------------------------------------
      -------------------------------------------
      -------------------------------------------
      -7-9-7-9-7-9-7-9--3--7-9-7-9-7-9-7-9--7----
      -7-9-7-9-7-9-7-9--3--7-9-7-9-7-9-7-9----9--
      -7-9-7-9-7-9-7-9--3--7-9-7-9-7-9-7-9-------

VERSE:

      --------------------------------------------------------------------------------7--
      --------------------------------------------------------------------------------7--
      --------------------------------------------------------------------------------7--
      -----------------------------------------------------------------------------------
      -7-9-7-9-7-9-7-9--3--7-9-7-9-7-9-7-9--14---7-9-7-9-7-9-7-9--3--7-9-7-9-7-9-7-9-----

VERSE2: (PRECHORUS)
      --------------------------------------------------------------------------------
      --------------------------------------------------------------------------------
      --------------------------------------------------------------------------------
      --------------------------------------------------------------------------------
      ------------------8------------------8-------------------8----------------------
      -7-9-7-9-7-9-7-9----7-9-7-9-7-9-7-9-----7-9-7-9-7-9-7-9-----7-9-7-9-7-9-7-9-7-9-

CHORUS:(REPEAT)

      ----------------------
      ----------------------
      ----------------------
      -0-0-7-7-4-4-6-6------
      -0-0-5-5-2-2-4-4------
      -0-0-0-0-0-0-0-0------

INTERLUDE: (THE SAME AS THE INTRO, BUT NOW JUST WTIH THE DISTORSION)

REPEAT VERSE:( WITHOUT THE FIRST 3 STRINGS PART)

REPEAT PRECHORUS:

REPEAT CHORUS:

BRIDGE:

      ------------------------------------------------------------
      ------------------------------------------------------------
      ------------------------------------------------------------
      ------------------------------9-7-9-10-4-5-6-9-7-9-10-4-5-6-
      ------------------------------9-7-9-10-4-5-6-9-7-9-10-4-5-6-
      -7-9-10-4-5-6-9-7-9-10-4-5-6--9-7-9-10-4-5-6-9-7-9-10-4-5-6-

RIFF 2: (REPEAT IT)
      ---------------------------------------------------------
      ---------------------------------------------------------
      ---------------------------------------------------------
      ---------------------------------------------------------
      -------------------------11--------------------------11--
      -10-12-10-12-10-12-10-12-----10-12-10-12-10-12-10-12-----


BACK TO CHORUS

AND THEN BACK TO FIFF 1 TO END THE SONG.



MESSAGES OR ANYTHING TO: JSLASHER_REDISTURBED515@HOTMAIL.COM
Tap to rate this tab
# A B C D E F G H I J K L M N O P Q R S T U V W X Y Z