Song name
# A B C D E F G H I J K L M N O P Q R S T U V W X Y Z

Disturbed - Voices tab

real good song hope you like it have fun look for more of my tabs bye

Intro (Clean with Flange effect)
E------------------------------------------------------------
B------------------------------------------------------------
G------------------------------------------------------------
D---9----7-9--7-9--7-9--7-9-X-X-X-X--------------------------
A---9----7-9--7-9--7-9--7-9-X-X-X-X--------------------------
D---9----7-9--7-9--7-9--7-9-X-X-X-X--------------------------
                                   So!
Main Riff (Distortion)
E------------------------------------------------------------
B------------------------------------------------------------
G------------------------------------------------------------
D---7-9-7-9-7-9-7-9--3--7-9-7-9-7-9-7-9--15------------------
A---7-9-7-9-7-9-7-9--3--7-9-7-9-7-9-7-9--15------------------
D---7-9-7-9-7-9-7-9--3--7-9-7-9-7-9-7-9--15------------------

Verse
E--------------------------|
B--------------------------|
G--------------------------|
D--------------------------|
A--------------------------|
D---7-9-7-9-7-9-7-9/3--|  Repeat: each line *Gradually get louder each line

Chorus
E------------------------------------------------------------------
B------------------------------------------------------------------
G------------------------------------------------------------------
D---0--------12----3--9/7-----Repeat through whole chorus----------
A---0--------12----3--9/7------------------------------------------
D---0--------12----3--9/7------------------------------------------

Right before Bridge (not exactly sure about this one)
E-------------------------------------------------------------------
B-------------------------------------------------------------------
G-------------------------------------------------------------------
D-------------------------------------------------------------------
A-------------------------------------------------------------------
D---9---12--9-10-9--12-9-10-9-10-12--Repeat-------------------------
Bridge
E----------------------------------------------------------------------
B----------------------------------------------------------------------
G----------------------------------------------------------------------
D---9--12--9--10-9--10-9-12-9------------------------------------------
A---9--12--9--10-9--10-9-12-9------------------------------------------
D---9--12--9--10-9--10-9-12-9----Repeat--------------------------------
Tap to rate this tab
# A B C D E F G H I J K L M N O P Q R S T U V W X Y Z