Guitaretab - guitar tabs
Song name
# A B C D E F G H I J K L M N O P Q R S T U V W X Y Z

Disturbed - Never Again tab

#----------------------------------PLEASE NOTE---------------------------------#
#This file is the author's own work and represents their interpretation of the #
#song. You may only use this file for private study, scholarship, or research. #
#------------------------------------------------------------------------------##

                                   NEVER AGAIN
                            As recorded by Disturbed
                          (From the 2010 Album ASYLUM)

Words and Music by Disturbed

Gtr I (C G C F A D) - 'Guitar I'
Gtr II (C G C F A D) - 'Guitar II'

 Intro
  Q=180
 3/4
  Gtr I
  E E E E Q     W                W             E E  E  E E E
|-------------|----------------|-------------|---------------|
|-------------|----------------|-------------|---------------|
|-------------|----------------|-------------|-----------8-8-|
|-7-7-7-8-----|----------------|-------------|-7-7-10-10-8-8-|
|-7-7-7-8-----|----------------|-------------|-7-7-10-10-6-6-|
|-7-7-7-8-----|----------------|-------------|-7-7-10-10-----|
|
| Gtr II
| E E E E E E   E E E  E  E  E   E E E E E E   E E  E  E E E
|-------------|----------------|-------------|---------------|
|-------------|----------------|-------------|---------------|
|-------------|----------------|-------------|---------------|
|-7-7-7-8-----|----------------|-------------|---------------|
|-7-7-7-8-----|----------------|-------------|-----------6-6-|
|-7-7-7-8-8-8-|-7-7-7-10-10-10-|-7-7-7-8-8-8-|-7-7-10-10-----|


  E E E E Q     W                W             E E E E E E
|-------------|----------------|-------------|--------------||
|-------------|----------------|-------------|--------------||
|-------------|----------------|-------------|-----8-8-7-7--||
|-7-7-7-8-----|----------------|-------------|-7-7-8-8-7-7--||
|-7-7-7-8-----|----------------|-------------|-7-7-6-6-5-5--||
|-7-7-7-8-----|----------------|-------------|-7-7----------||
|
| E E E E E E   E E E  E  E  E   E E E E E E   E E E E E E
|-------------|----------------|-------------|--------------||
|-------------|----------------|-------------|--------------||
|-------------|----------------|-------------|--------------||
|-7-7-7-8-----|----------------|-------------|--------------||
|-7-7-7-8-----|----------------|-------------|-----6-6-5-5--||
|-7-7-7-8-8-8-|-7-7-7-10-10-10-|-7-7-7-8-8-8-|-7-7----------||


   Main Riff
                                                 1.
    E E E E E E   E E E  E  E  E   E E E E E E   E E  E  E E E
||--------------|----------------|-------------|----------------||
||o-------------|----------------|-------------|---------------o||
||--------------|----------------|-------------|-----------8-8--||
||--7-7-7-8-8-8-|-7-7-7-10-10-10-|-7-7-7-8-8-8-|-7-7-10-10------||
||o-------------|----------------|-------------|---------------o||
||--------------|----------------|-------------|----------------||
|
|   E E E E E E   E E E  E  E  E   E E E E E E   E E  E  E E E
||--------------|----------------|-------------|----------------||
||o-------------|----------------|-------------|---------------o||
||--------------|----------------|-------------|----------------||
||--------------|----------------|-------------|----------------||
||o-------------|----------------|-------------|-----------6-6-o||
||--7-7-7-8-8-8-|-7-7-7-10-10-10-|-7-7-7-8-8-8-|-7-7-10-10------||


  2.
  E E E E E E
|-------------|
|-------------|
|-----8-8-7-7-|
|-7-7---------|
|-------------|
|-------------|
|
| E E E E E E
|-------------|
|-------------|
|-------------|
|-------------|
|-----6-6-5-5-|
|-7-7---------|


                                                 1.
    Gtrs I, II
    E E E E E E   E E E  E  E  E   E E E E E E   E E  E  E E E
||--------------|----------------|-------------|----------------||
||o-------------|----------------|-------------|---------------o||
||--------------|----------------|-------------|-----------8-8--||
||--7-7-7-8-8-8-|-7-7-7-10-10-10-|-7-7-7-8-8-8-|-7-7-10-10-8-8--||
||o-7-7-7-8-8-8-|-7-7-7-10-10-10-|-7-7-7-8-8-8-|-7-7-10-10-6-6-o||
||--7-7-7-8-8-8-|-7-7-7-10-10-10-|-7-7-7-8-8-8-|-7-7-10-10------||


  2.
  E E E E E E
|-------------||
|-------------||
|-----8-8-7-7-||
|-7-7-8-8-7-7-||
|-7-7-6-6-5-5-||
|-7-7---------||


 Verse
 4/4
  Gtr I
  Q  Q  E E E E   E E E E E E E E   Q  E E E E E E   E E E E E E E E
|---------------|-----------------|----------------|------------------|
|---------------|-----------------|----------------|------------------|
|---------8-8-8-|-----------------|----8-8-8-------|------------------|
|-5--5--5-8-8-8-|-5-5-5-6-6-6-8-8-|-5--8-8-8-5-5-5-|-6-6-6-8-8-8-6-6--|
|-5--5--5-6-6-6-|-5-5-5-6-6-6-8-8-|-5--6-6-6-5-5-5-|-6-6-6-8-8-8-6-6--|
|-5--5--5-------|-5-5-5-6-6-6-8-8-|-5--------5-5-5-|-6-6-6-8-8-8-6-6--|
|
| Gtr II
| Q  Q  H         W                 Q  E E E E E E   E E E E E E E E
|---------------|-----------------|----------------|------------------|
|---------------|-----------------|----------------|------------------|
|---------------|-----------------|----8-8-8-------|------------------|
|-5--5----------|-----------------|-5--8-8-8-5-5-5-|-6-6-6-8-8-8-6-6--|
|-5--5----------|-----------------|-5--6-6-6-5-5-5-|-6-6-6-8-8-8-6-6--|
|-5--5----------|-----------------|-5--------5-5-5-|-6-6-6-8-8-8-6-6--|


  Gtrs I, II
  Q  Q  E E E E   E E E E E E E E   Q  E E E E E E   Q   E E E Q.
|---------------|-----------------|----------------|----------------|
|---------------|-----------------|----------------|----------------|
|---------8-8-8-|-----------------|----8-8-8-------|----------------|
|-5--5--5-8-8-8-|-5-5-5-6-6-6-8-8-|-5--8-8-8-5-5-5-|-6\--------6----|
|-5--5--5-6-6-6-|-5-5-5-6-6-6-8-8-|-5--6-6-6-5-5-5-|-6\--------6----|
|-5--5--5-------|-5-5-5-6-6-6-8-8-|-5--------5-5-5-|-6\--0-0-0-6----|


    Q  Q  E E E E   E E E E E E E E   Q  E E E E E E   E E E E E E E E
||----------------|-----------------|----------------|------------------|
||o---------------|-----------------|----------------|------------------|
||----------8-8-8-|-----------------|----8-8-8-------|------------------|
||--5--5--5-8-8-8-|-5-5-5-6-6-6-8-8-|-5--8-8-8-5-5-5-|-6-6-6-8-8-8-6-6--|
||o-5--5--5-6-6-6-|-5-5-5-6-6-6-8-8-|-5--6-6-6-5-5-5-|-6-6-6-8-8-8-6-6--|
||--5--5--5-------|-5-5-5-6-6-6-8-8-|-5--------5-5-5-|-6-6-6-8-8-8-6-6--|


  Q  Q  E E E E   E E E E E E E E   Q  E E E E E E   Q   E E E Q.
|---------------|-----------------|----------------|-----------------||
|---------------|-----------------|----------------|----------------o||
|---------8-8-8-|-----------------|----8-8-8-------|-----------------||
|-5--5--5-8-8-8-|-5-5-5-6-6-6-8-8-|-5--8-8-8-5-5-5-|-6\--------6-----||
|-5--5--5-6-6-6-|-5-5-5-6-6-6-8-8-|-5--6-6-6-5-5-5-|-6\--------6----o||
|-5--5--5-------|-5-5-5-6-6-6-8-8-|-5--------5-5-5-|-6\--0-0-0-6-----||


   Chorus
    Q.   Q.   Q    Q  Q  Q  Q    Q.   Q.   Q    Q  H    Q
||---------------|-------------|--------------|-------------|
||o--------------|-------------|--------------|-------------|
||-------3----2--|----3-----2--|------3----2--|----3----5---|
||---------------|-------0-----|--------------|-------------|
||o--------------|-------------|--------------|-------------|
||--1------------|-0-----------|-3------------|-2-----------|


                                                  1.
  Q.   Q.   Q    Q.   Q.   Q    E E E E E E E E   E E E E E Q.
|--------------|--------------|-----------------|-----------------||
|--------------|--------------|-----------------|----------------o||
|------3----2--|--------------|-----------------|-----------------||
|--------------|--------------|-----------------|-----------------||
|--------------|-8----8----7--|-3-5---------3-5-|-----------3----o||
|-1------------|-8----8----7--|-3-5-5-5-5-5-3-5-|-5-5-5-5-5-3-----||


  2.
  E E E E E E E E   E E E E E E E E   E E E E E E E E
|-----------------|-----------------|-----------------||
|-----------------|-----------------|-----------------||
|-----------------|-----------------|-----------------||
|-----------------|-----------------|-----------------||
|---------3-5-----|-3-5---------3-5-|---------3-5-----||
|-5-5-5-5-3-5-5-5-|-3-5-5-5-5-5-3-5-|-5-5-5-5-3-5-5-5-||


 Break
 3/4
  E E E E E E   E E E  E  E  E   E E E E E E   E E  E  E E E
|-------------|----------------|-------------|---------------|
|-------------|----------------|-------------|---------------|
|-------------|----------------|-------------|---------------|
|-------------|----------------|-------------|---------------|
|-------------|----------------|-------------|-----------6-6-|
|-7-7-7-8-8-8-|-7-7-7-10-10-10-|-7-7-7-8-8-8-|-7-7-10-10-----|


  Gtr I
  E E E E E E   E E E  E  E  E   E E E E E E   E E E E E E
|-------------|----------------|-------------|--------------|
|-------------|----------------|-------------|--------------|
|-------------|----------------|-------------|--------------|
|-------------|----------------|-------------|--------------|
|-------------|----------------|-------------|-----6-6-5-5--|
|-7-7-7-8-8-8-|-7-7-7-10-10-10-|-7-7-7-8-8-8-|-7-7----------|
|
| Gtr II
| E E E E E E   E E E  E  E  E   E E E E E E   E E E E E E
|-------------|----------------|-------------|--------------|
|-------------|----------------|-------------|--------------|
|-------------|----------------|-------------|-----8-8-7-7--|
|-7-7-7-8-8-8-|-7-7-7-10-10-10-|-7-7-7-8-8-8-|-7-7----------|
|-------------|----------------|-------------|--------------|
|-------------|----------------|-------------|--------------|

After this it's basicly Verse then Chorus again


 Solo (I think a wah pedal is used)
 4/4
   E  E  E  E  E  E  E  E    E  E  E  E  E  E  E  E
|-15-12----------12-------|----------12-------------|
|-------13-12-13----13-12-|----12-13----13-12----12-|
|-------------------------|-14----------------14----|
|-------------------------|-------------------------|
|-------------------------|-------------------------|
|-------------------------|-------------------------|
|
|        PM--------------------------------------|
|  E  E  E  E  E  E  E  E    E  E  E  E  E  E  E  E
|-------------------------|-------------------------|
|-------------------------|-------------------------|
|-------------------------|-------------------------|
|-------------------------|-------------------------|
|--5--7-------------------|-------------------------|
|--5--7--7--7--7--7--7--7-|--7--7--7--7--7--7--7--7-|

[ Tab from: http://www.guitaretab.com/d/disturbed/270827.html ]
   E  E  E  E  E  E  E  E    E   E  E  E  E  E  E  E
|-15-12----------------12-|-----------------10--------|
|-------13-12----12-13----|-13--12----12-13----13-12--|
|-------------14----------|--------14-----------------|
|-------------------------|---------------------------|
|-------------------------|---------------------------|
|-------------------------|---------------------------|
|
|        PM---------|
|  E  E  E  E  E  E  E  E   +E   E  E  E  E  E  E  E
|-------------------------|---------------------------|
|-------------------------|---------------------------|
|-------------------------|---------------------------|
|-------------------------|---------------------------|
|--5--7-----------------8-|-(8)--8--8--8--8-10-10-10--|
|--5--7--7--7--7--7--7--8-|-(8)--8--8--8--8-10-10-10--|


         ~~~
   E  E  Q.     E E  E    +Q    E E E E Q
|-----------------------|-------------------|
|-----------------------|-------------------|
|-14/17-16\-------5-[7]-|-(7)---5---5-8-7---|
|---------------7-------|---------7---------|
|-----------------------|-------------------|
|-----------------------|-------------------|
|
|        PM-------------------------------|
|  E  E  E  E E E E  E     E  E E E E E E E
|-----------------------|-------------------|
|-----------------------|-------------------|
|-----------------------|-------------------|
|-----------------------|-------------------|
|--5--7-----------------|-------------------|
|--5--7--7--7-7-7-7--7--|--7--7-7-7-7-7-7-7-|


   E  E  E  E  E  E  E  E    E   E  E  E E  E  E  E
|----15-------12----10-13-|-10-----10---------------|
|-13----13-10----10-------|-----12----12-9-12--9----|
|-------------------------|----------------------10-|
|-------------------------|-------------------------|
|-------------------------|-------------------------|
|-------------------------|-------------------------|
|
|        PM---------|
|  E  E  E  E  E  E  E  E   +E   E  E  E E  E  E  E
|-------------------------|-------------------------|
|-------------------------|-------------------------|
|-------------------------|-------------------------|
|-------------------------|-------------------------|
|--5--7-----------------8-|-(8)--8--8--8-8-10-10-10-|
|--5--7--7--7--7--7--7--8-|-(8)--8--8--8-8-10-10-10-|


  H       E E E E   E E Q   E E Q
|-----------------|-----------------|
|-----------------|---------7-8-7---|
|-9-----------5-7-|-8-9-8-----------|
|---------7-9-----|-----------------|
|-----------------|-----------------|
|-----------------|-----------------|
|
| E E E E E E E E   E E E E E E E E
|-----------------|-----------------|
|-----------------|-----------------|
|-----------------|-----------------|
|-----------------|-----------------|
|-----------------|-----------------|
|-0-2-2-2-2-2-2-1-|-1-1-1-1-1-0-0-0-|


  +Q    E E E  Q    E    +E   Q.      H
|-------7-8-7/12---11-|-(11)-15------14-------|
|-(7)-----------------|-----------------------|
|---------------------|-----------------------|
|---------------------|-----------------------|
|---------------------|-----------------------|
|---------------------|-----------------------|
|
|  E  E E E E  E E  E     E   E  E E  E E E E
|---------------------|-----------------------|
|---------------------|-----------------------|
|---------------------|-----------------------|
|---------------------|-----------------------|
|---------------------|-----------------------|
|--0--0-0-2-2--2-2--2-|---2---1--1-1--0-0-0-1-|


   Q.      Q.      Q      +E   E  E  E  E  E  Q
|-24------22------19---|-(19)-20-19-20-22---------|
|----------------------|------------------20------|
|----------------------|---------------------21---|
|----------------------|--------------------------|
|----------------------|--------------------------|
|----------------------|--------------------------|
|
|  E  E E  E  E E  E E     E   E  E  E  E  E  E E
|----------------------|--------------------------|
|----------------------|--------------------------|
|----------------------|--------------------------|
|----------------------|--------------------------|
|----------------------|--------------------------|
|--0--2-2--2--2-2--2-1-|---1---1--1--1--1--0--0-0-|


                                                            ~~~~
  Q    S  S  S  S  S  S  S  S  S  S  S  S    Q    E  E  E   Q.
|--------19----------------19-------------|------------------------|
|-----20----20----------20----20----------|------------10-[12]-----|
|--------------21----------------21-------|-12\---9-12-------------|
|-----------------21----------------21----|------------------------|
|--------------------22----------------22-|------------------------|
|-----------------------------------------|------------------------|
|
| E E  E     E     E     E     E     E       E  E E  E  E   E  E E
|-----------------------------------------|------------------------|
|-----------------------------------------|------------------------|
|-----------------------------------------|------------------------|
|-----------------------------------------|------------------------|
|-----------------------------------------|------------------------|
|-0-0--0-----2-----2-----2-----2-----2----|--2--1-1--1--0---0--0-1-|


   E  E  E  E  E  E  E  E    E  E  E  E  E  E  E  E
|-12----------------15-12-|----------12-19-17-------|
|----13----------13-------|-13----13----------15----|
|-------14----14----------|----12----------------15-|
|----------14-------------|-------------------------|
|-------------------------|-------------------------|
|-------------------------|-------------------------|
|
|        PM--------------------------------------|
|  E  E  E  E  E  E  E  E    E  E  E  E  E  E  E  E
|-------------------------|-------------------------|
|-------------------------|-------------------------|
|-------------------------|-------------------------|
|-------------------------|-------------------------|
|--5--7-------------------|-------------------------|
|--5--7--7--7--7--7--7--7-|--7--7--7--7--7--7--7--7-|


   Q.      Q.      Q         +E   Q.      E  +E      +Q
|-----------------15b17---|-(15)----------------------------|
|-------------------------|------17------15-(15)b17-(15)----|
|-17------16--------------|---------------------------------|
|-------------------------|---------------------------------|
|-------------------------|---------------------------------|
|-------------------------|---------------------------------|
|
|       PM--------|
|  E  E E  E  E E  E    E    +E   E  E E  E   E       E   E
|-------------------------|---------------------------------|
|-------------------------|---------------------------------|
|-------------------------|---------------------------------|
|-------------------------|---------------------------------|
|--5--7-----------------8-|--(8)--8--8-8--8--10------10--10-|
|--5--7-7--7--7-7--7----8-|--(8)--8--8-8--8--10------10--10-|


  E  E  E  E E  E E  E    E E E E E  E E E
|-8-10-12-12-8-10-0-10-|-12-0-7-8-8-10-7-8-|
|----------------------|-------------------|
|----------------------|-------------------|
|----------------------|-------------------|
|----------------------|-------------------|
|----------------------|-------------------|
|
|       PM-------------------------------|
| E  E  E  E E  E E  E    E E E E E  E E E
|----------------------|-------------------|
|----------------------|-------------------|
|----------------------|-------------------|
|----------------------|-------------------|
|-5--7-----------------|-------------------|
|-5--7--7--7-7--7-7--7-|--7-7-7-7-7--7-7-7-|


   E  E  E  E  E  E  E  E    E   E E  E E  E  E  E
|-12-10-12-15-12-12-12-17-|--0--15-0-19-0-17--0-15-||
|-------------------------|------------------------||
|-------------------------|------------------------||
|-------------------------|------------------------||
|-------------------------|------------------------||
|-------------------------|------------------------||
|
|        PM---------|
|  E  E  E  E  E  E  E  E   +E   E E  E E  E  E  E
|-------------------------|------------------------||
|-------------------------|------------------------||
|-------------------------|------------------------||
|-------------------------|------------------------||
|--5--7-----------------8-|-(8)--8-8--8-8-10-10-10-||
|--5--7--7--7--7--7--7--8-|-(8)--8-8--8-8-10-10-10-||

Then play the Intro again and repeat the Chorus twice


 End.
  Gtrs I, II
  E E H.
|-----------*|
|-----------*|
|-----------*|
|-5-5-------*|
|-5-5-------*|
|-5-5-------*|


Duration Legend
---------------
W - whole; H - half; Q - quarter; E - 8th; S - 16th; T - 32nd; X - 64th; a - acciaccatura
+ - note tied to previous; . - note dotted; .. - note double dotted
Uncapitalized letters represent notes that are staccato (1/2 duration)
Irregular groupings are notated above the duration line
Duration letters will always appear directly above the note/fret number it represents the
duration for.  Duration letters with no fret number below them represent rests.  Multi-
bar rests are notated in the form Wxn, where n is the number of bars to rest for.  Low
melody durations appear below the staff

Tablature Legend
----------------
 h   - hammer-on
 p   - pull-off
 b   - bend
 pb  - pre-bend
 r   - bend release (if no number after the r, then release immediately)
 /\  - slide into or out of (from/to "nowhere")
 s   - legato slide
 S   - shift slide
  - natural harmonic
[n]  - artificial harmonic
n(n) - tapped harmonic
 ~   - vibrato
 tr  - trill
 T   - tap
 TP  - trem. picking
 PM  - palm muting
\n/  - tremolo bar dip; n = amount to dip
 \n  - tremolo bar down
 n/  - tremolo bar up
/n\  - tremolo bar inverted dip
 =   - hold bend; also acts as connecting device for hammers/pulls
 <>  - volume swell (louder/softer)
 x   - on rhythm slash represents muted slash
 o   - on rhythm slash represents single note slash

Misc Legend
-----------
 |  - bar
||  - double bar
||o - repeat start
o|| - repeat end
*|  - double bar (ending)
 :  - bar (freetime)
 $  - Segno
 &  - Coda
Tempo markers -  = BPM(8/16=s8/s16), where s8 = swing 8ths, s16 = swing 16ths


***************************************************************************************
* Generated using Power Tab Editor by Brad Larsen - http://powertab.guitarnetwork.org *
***************************************************************************************
Related for Never Again tab
Never Again chords by Disturbed