Song name
# A B C D E F G H I J K L M N O P Q R S T U V W X Y Z

Diva Destruction - The Broken Ones tab

Help us improve GuitareTab! Take a short survey!
Song: The Broken Ones
Band: Diva Destruction
Album: Passion's Price
Notes: e-eighth note
       q-quarter note
       h-half note
       h.-half note+one
~~~~~~~~~~~~~~~~~~~~~~~~~~~~~~~~~~~~~~~~~~~~~~~~~~~~~~~~~~~~~~~~

INTRO(KEY.)

--------------|-------------------
--------------|-------------------
--------------|-------------------
1----0---1----|2----1----0---1----
1----0---1----|2----1----0---1----
1----0---1----|2----1----0---1----
.    .   .     .    .    .   .
h.   h   h.    h.   h.   h   h.

INTRO(GUITAR)(X1)

----------------------------------------------------------
----------------------------------------------------------
----------------------------------------------------------
6-6-----4-4--6-6-----8-8--6-6-----4b---6-6-----8-8-9--6-6-
6-6-----4-4--6-6-----8-8--6-6-----4b---6-6-----8-8-9--6-6-
6-6-----4-4--6-6-----8-8--6-6-----4b---6-6-----8-8-9--6-6-
e e     e e  e e     e e  e e     e    e e     e e e  e e 

VERSE(X1)

---------------------------------------------------------
---------------------------------------------------------
------------9b-(9)\8~--------------------9b-(9)\8~-------
---------------------------------------------------------
---------------------------------------------------------
---------------------------------------------------------
             e  e eq                      e  e eq

PRE-CHORUS

--------------------------------------------------------
--------------------------------------------------------
--------------------------------------------------------
8-8-8-8-6-6-6-6-4-4-4-4-4-4-8-8-8-8-9-9-9-9-6-6-6-6-6-6-
8-8-8-8-6-6-6-6-4-4-4-4-4-4-8-8-8-8-9-9-9-9-6-6-6-6-6-6-
8-8-8-8-6-6-6-6-4-4-4-4-4-4-8-8-8-8-9-9-9-9-6-6-6-6-6-6-
e e e e e e e e e e e e e e e e e e e e e e e e e e e e 

CHORUS

-------
-------
-------
4--6---
4--6---
4--6---
q  q

POST CHORUS

------------
------------
------------
4-4-5-5-6-6-
4-4-5-5-6-6-
4-4-5-5-6-6-
e e e e e e 

SONG SET-UP
~~~~~~~~~~~~
INTRO-KEY.
INTRO-GUIT.
VERSE
PRE-CHORUS
CHORUS
POST CHORUS
VERSE
PRE-CHORUS
PRE-CHORUS
CHORUS
POST CHORUS
Related for The Broken Ones tab