Song name
# A B C D E F G H I J K L M N O P Q R S T U V W X Y Z

Divinefire - Sign tab

CHORUS
-3---3-3--3-2--2-----2---0-----0--------3----3-----5---3-2--2-2--0---0---2---|
-----------------------------3-----3-----------------------------------------|
-----------------------------------------------------------------------------|
-----------------------------------------------------------------------------|
-----------------------------------------------------------------------------|
-----------------------------------------------------------------------------|
Now I See Th-e Sign Sun-rise of my life Dark-ness fades a-wa-y A New Day has

       VERSE I
-3--7--------2---2--2---0---2---2---2--0---2---0----2--5---2---2----2--2---2-|
-----------------------------------------------------------------------------|
-----------------------------------------------------------------------------|
-----------------------------------------------------------------------------|
-----------------------------------------------------------------------------|
-----------------------------------------------------------------------------|
Be-gun    Look-ing for the ans-wer to the mea-ning of my life Its hard to see
          Me  -di  -a  is sen-ding out a mes-sage to the worldIts the time to

2--0--2---2-----2--2--0--------------||
---------------------------3---0--0--||x2
-------------------------------------||
-------------------------------------||
-------------------------------------||
-------------------------------------||
  the fu-ture when the    love is gun
a-na-lyzeIt   Be-foreItbreaksMe down
Tap to rate this tab
# A B C D E F G H I J K L M N O P Q R S T U V W X Y Z