Song name
# A B C D E F G H I J K L M N O P Q R S T U V W X Y Z

Division Minuscula - Tan Fuerte Tan Fragil tab

ai les va el puro intro ojala q les ayude

---------------------------|
-7-7-7-7--7----------------|
-7-7-7-7--7---6-6-6-6--6---|
-7-7-7-7--7---7-7-7-7--7---|  x2
-5-5-5-5--5---7-7-7-7--7---|
--------------5-5-5-5--5---|


---------------------------------|
-7-7-7-7-7-7-7-7-7-6-6-7-7-7-7-7-|
-7-7-7-7-7-7-7-7-7-6-6-7-7-7-7-7-|
-7-7-7-7-7-7-7-7-7-6-6-7-7-7-7-7-|
-5-5-5-5-5-5-5-5-5-4-4-7-7-7-7-7-|
---------------------------------|
beanle bn los tiempos
Tap to rate this tab
# A B C D E F G H I J K L M N O P Q R S T U V W X Y Z