Song name
# A B C D E F G H I J K L M N O P Q R S T U V W X Y Z

Dj Jean - Eternity tab

E---5-4-----------------------|
G-7------5-7-7--7-5-7---------|
B-----------------------------|   whole thing X3
D-----------------------------|
A-----------------------------|
E-----------------------------|

THEN
E---4-------------------------|
G-7--------5-5-5---5----------|
B-----6--6------6-------------|
D-----------------------------|
A-----------------------------|
E-----------------------------|

and the other thing is

E----9-12-------    ----12--14---    ----14-16---|
G-12------------    -14----------    -17---------|
B--------------- X8 ------------- X5 ------------| X3
D---------------    -------------    ------------|
A---------------    -------------    ------------|
E---------------    -------------    ------------|

this is 100% rate it up
Tap to rate this tab
# A B C D E F G H I J K L M N O P Q R S T U V W X Y Z