Song name
# A B C D E F G H I J K L M N O P Q R S T U V W X Y Z

Dj Z Trip - Walking Dead tab

DJ Z Trip
Walking Dead (feat. Chester Bennington)
Tuning E A D G B E
Tabbed by U B the band
                                       http://www.djztrip.com/
\-slide down                           http://www.myspace.com/djztrip

Intro: Guitar 1
E|--------------------------------------------------------------------|
B|--------------------------------------------------------------------|
G|-----------------------------------6----------------3---------------|
D|--3---------------6----------------4----------------1---------------|
A|--1---------------4-------------------------------------------------|
E|--------------------------------------------------------------------|
                                                                      |
Intro: Guitar 2 (Transcribed from keyboard)                           |
E|----------------------------------------------------------------7-6-|
B|------------------------------------------------------6-7-9-7-6-----|
G|--------------------------------------------------------------------|
D|--------------------------------------------------------------------|
A|--------------------------------------------------------------------|
E|--------------------------------------------------------------------|

Intro: Guitar 1
E|--------------------------------------------------------------------|
B|--------------------------------------------------------------------|
G|--------------------------------------------------------------------|
D|--3---------------4----------------6----------------4---------------|
A|--1---------------2----------------4----------------2---------------|
E|--------------------------------------------------------------------|
                                                                      |
Intro: Guitar 2 (Transcribed from keyboard)                           |
E|----------------------------------------------------------------7-6-|
B|------------------------------------------------------6-7-9-7-6-----|
G|--------------------------------------------------------------------|
D|--------------------------------------------------------------------|
A|--------------------------------------------------------------------|
E|--------------------------------------------------------------------|

Verse 1: Guitar 1 PLAY 2 TIMES
E|--------------------------------------------------------------------|
B|--------------------------------------------------------------------|
G|--------------------------------------------------------------------|
D|--3--------------------------------3--------------------------------|
A|--1--------------------------------1--------------------------------|
E|--------------------------------------------------------------------|
                                                                      |
Verse 1: Guitar 2 PLAY 2ND TIME                                       |
E|----------------------------------------------------------------7-6-|
B|------------------------------------------------------6-7-9-7-6-----|
G|--------------------------------------------------------------------|
D|--------------------------------------------------------------------|
A|--------------------------------------------------------------------|
E|--------------------------------------------------------------------|

Pre Chorus: Guitar 1
E|--------------------------------------------------------------------|
B|--------------------------------------------------------------------|
G|--------------------------------------------------------------------|
D|--3---------------4----------------6--------------------------------|
A|--1---------------2----------------4--------------------------------|
E|--------------------------------------------------------------------|
                                                                      |
Pre Chorus: Guitar 2 (Transcribed from keyboard)                      |
E|----------------------------------------------------------------7-6-|
B|------------------------------------------------------6-7-9-7-6-----|
G|--------------------------------------------------------------------|
D|--------------------------------------------------------------------|
A|--------------------------------------------------------------------|
E|--------------------------------------------------------------------|

Chorus: Guitar 1 PLAY 2 TIMES
E|--------------------------------------------------------------------|
B|--------------------------------------------------------------------|
G|-----------------------------------6----------------3---------------|
D|--3---------------6----------------4----------------1---------------|
A|--1---------------4-------------------------------------------------|
E|--------------------------------------------------------------------|

Post Chorus: Guitar 1
E|--------------------------------------------------------------------|
B|--------------------------------------------------------------------|
G|--3-----------------------------------------------------------------|
D|--x-----------------------------------------------------------------|
A|--1-----------------------------------------------------------------|
E|--------------------------------------------------------------------|
                                                                      |
Post Chorus: Guitar 2                                                 |
E|----------------------------------------------------------------7-6-|
B|------------------------------------------------------6-7-9-7-6-----|
G|--------------------------------------------------------------------|
D|--------------------------------------------------------------------|
A|--------------------------------------------------------------------|
E|--------------------------------------------------------------------|

Verse 2: Guitar 1 PLAY 2 TIMES
E|--------------------------------------------------------------------|
B|--------------------------------------------------------------------|
G|--------------------------------------------------------------------|
D|--3---------------4----------------6----------------4---------------|
A|--1---------------2----------------4----------------2---------------|
E|--------------------------------------------------------------------|
                                                                      |
Verse 2: Guitar 2 PLAY 2ND TIME                                       |
E|----------------------------------------------------------------7-6-|
B|------------------------------------------------------6-7-9-7-6-----|
G|--------------------------------------------------------------------|
D|--------------------------------------------------------------------|
A|--------------------------------------------------------------------|
E|--------------------------------------------------------------------|

Pre Chorus: Guitar 1
E|--------------------------------------------------------------------|
B|--------------------------------------------------------------------|
G|--------------------------------------------------------------------|
D|--3---------------4----------------6--------------------------------|
A|--1---------------2----------------4--------------------------------|
E|--------------------------------------------------------------------|
                                                                      |
Pre Chorus: Guitar 2 (Transcribed from keyboard)                      |
E|----------------------------------------------------------------7-6-|
B|------------------------------------------------------6-7-9-7-6-----|
G|--------------------------------------------------------------------|
D|--------------------------------------------------------------------|
A|--------------------------------------------------------------------|
E|--------------------------------------------------------------------|

Chorus: Guitar 1 PLAY 2 TIMES
E|--------------------------------------------------------------------|
B|--------------------------------------------------------------------|
G|-----------------------------------6----------------3---------------|
D|--3---------------6----------------4----------------1---------------|
A|--1---------------4-------------------------------------------------|
E|--------------------------------------------------------------------|

Post Chorus: Guitar 1
E|--------------------------------------------------------------------|
B|--------------------------------------------------------------------|
G|--3-----------------------------------------------------------------|
D|--x-----------------------------------------------------------------|
A|--1-----------------------------------------------------------------|
E|--------------------------------------------------------------------|
                                                                      |
Post Chorus: Guitar 2                                                 |
E|----------------------------------------------------------------7-6-|
B|------------------------------------------------------6-7-9-7-6-----|
G|--------------------------------------------------------------------|
D|--------------------------------------------------------------------|
A|--------------------------------------------------------------------|
E|--------------------------------------------------------------------|

Bridge: Guitar 1 PLAY 2 TIMES
E|--------------------------------------------------------------------|
B|--------------------------------------------------------------------|
G|--------------------------------------------------------------------|
D|--3-----------------------------------------------------------------|
A|--1-----------------------------------------------------------------|
E|--------------------------------------------------------------------|
                                                                      |
Bridge: Guitar 2                                                      |
E|------------------------------------6\5-------------------------7-6-|
B|------------------------------------------------------6-7-9-7-6-----|
G|--------------------------------------------------------------------|
D|--------------------------------------------------------------------|
A|--------------------------------------------------------------------|
E|--------------------------------------------------------------------|
                                                                      |
Bridge: Guitar 3 (With Wah)                                           |
E|--------------------------------------------------------------------|
B|--------------------------------------------------------------------|
G|--------------------------------------------------------------------|
D|--------------8-\------------8-\------------------------------------|
A|--------------------------------------------------------------------|
E|-----------6--------------6-----------------------------------------|

Pre Chorus: Guitar 1
E|--------------------------------------------------------------------|
B|--------------------------------------------------------------------|
G|--------------------------------------------------------------------|
D|--3---------------4----------------6--------------------------------|
A|--1---------------2----------------4--------------------------------|
E|--------------------------------------------------------------------|

E|--------------------------------------------------------------------|
B|--------------------------------------------------------------------|
G|--------------------------------------------------------------------|
D|--------------8-\-------------8-\-------------8-\-------------------|
A|--------------------------------------------------------------------|
E|-----------6---------------6---------------6------------------------|

Chorus: Guitar 1 PLAY 4 TIMES
E|--------------------------------------------------------------------|
B|--------------------------------------------------------------------|
G|-----------------------------------6----------------3---------------|
D|--3---------------6----------------4----------------1---------------|
A|--1---------------4-------------------------------------------------|
E|--------------------------------------------------------------------|

Outro: Guitar 1
E|--------------------------------------------------------------------|
B|--------------------------------------------------------------------|
G|--------------------------------------------------------------------|
D|--3-----------------------------------------------------------------|
A|--1-----------------------------------------------------------------|
E|--------------------------------------------------------------------|

Finished
Tap to rate this tab
# A B C D E F G H I J K L M N O P Q R S T U V W X Y Z