Song name
# A B C D E F G H I J K L M N O P Q R S T U V W X Y Z

Does - Donten tab

-------------------------------------------------------------------------------
			     Donten - Does
-------------------------------------------------------------------------------
Tabbed by: RE.[b0rn]		
Email: reborn.mike@gmail.com

Tuning: Standart

Intro:
|E---------------------------------|
|B---------------------------------|
|G---7-7-7-x-----------------------| 
|D---7-7-7-x-----------------------|
|A---5-5-5-x-----------------------|
|E---------------------------------|



Verse (v1):
E-----------------------------------------------------------------------|
B-----------------------------------------------------------------------|
G---7-7-7-7-7-7-7-7-7-7-7-7-7-7-------3-3-3-3-3-3-3--------5-5-5-5-5-5-5| X2
D---7-7-7-7-7-7-7-7-7-7-7-7-7-7-------3-3-3-3-3-3-3--------5-5-5-5-5-5-5|
A---5-5-5-5-5-5-5-5-5-5-5-5-5-5-------1-1-1-1-1-1-1--------3-3-3-3-3-3-3|
E-----------------------------------------------------------------------|
then
E------------------------------|
B------------------------------|
G---7-7-7-7-7-7-7-7-7-7-7-7-7-7|
D---7-7-7-7-7-7-7-7-7-7-7-7-7-7|
A---5-5-5-5-5-5-5-5-5-5-5-5-5-5|
E------------------------------|


Chorus:
E--------------------------------------------------------------------|
B-------------------------------------5--5-5-5-5-5-5-----------------|
G---7--7-7-7-7-7-7---3--3-3-3-3-3-3---5--5-5-5-5-5-5---5--5-5-5-5-5-5| X3 
D---7--7-7-7-7-7-7---3--3-3-3-3-3-3---3--3-3-3-3-3-3---5--5-5-5-5-5-5|
A---5--5-5-5-5-5-5---1--1-1-1-1-1-1--------------------3--3-3-3-3-3-3|
E--------------------------------------------------------------------|
then 
E---------------------------------------------------|
B---------------------------------------------------|
G---7--7-7-7-7-7-7---3--3-3-3-3-3-3---5--5-5-5-5-5-5| 
D---7--7-7-7-7-7-7---3--3-3-3-3-3-3---5--5-5-5-5-5-5|
A---5--5-5-5-5-5-5---1--1-1-1-1-1-1---3--3-3-3-3-3-3|
E---------------------------------------------------|


Verse (v2):
E---------------------------------------------------|
B---------------------------------------------------|
G---7--7-7-7-7-7-7---3--3-3-3-3-3-3---5--5-5-5-5-5-5| 
D---7--7-7-7-7-7-7---3--3-3-3-3-3-3---5--5-5-5-5-5-5|
A---5--5-5-5-5-5-5---1--1-1-1-1-1-1---3--3-3-3-3-3-3|
E---------------------------------------------------|
then
E-----|
B-----|
G---7~| 
D---7~|
A---5~|
E-----|


Start:
Intro x16
then: Chorus (without last part) x2
then: Intro x5 
then: Verse (v1) (without last part)
then: Intro x7 (8?)
then: Verse (v1)
then: Chorus
then: Verse (v2)
then: Intro x8
then: Verse (v2)
then: Chorus
then: Verse (v2 Mod)
then: Chorus
then: Verse (v2) x2
End :D
Tap to rate this tab
 
# A B C D E F G H I J K L M N O P Q R S T U V W X Y Z