Song name
# A B C D E F G H I J K L M N O P Q R S T U V W X Y Z

Dog Fashion Disco - Gardenia tab

-------------------------------------------------------------------------------
			     Gardenia - Dog Fashion Disco
-------------------------------------------------------------------------------
Tabbed by: Vincent Burkhalter
Email: wraith_master_of_metal@yahoo.com

this is my first tab ever so please go easy hahaha




Tuning: tune the low E string down to D

  Intro [Verse one (0:01-0:14)]
e|-----------------------------------------------------------------|
B|-----------------------------------------------------------------|
G|-------7-7-7-----------------------------------------------------|
D|--0----7-7-7-0----5\3-3h5-5/7-5----5-5-5-5/3-3-3----5p3-3h5-5/7--|
A|--0----5-5-5-0----5\3-3h5-5/7-5----5-5-5-5/3-3-3----5p3-3h5-5/7--|
D|--0----------0----5\3-3h5-5/7-5----5-5-5-5/3-3-3----5p3-3h5-5/7--|

e|-----------------------------------------------------------------|
B|-----------------------------------------------------------------|
G|-------7-7-7-----------------------------------------------------|
D|--0----7-7-7-0----5\3-3h5-5/7------------------------------------|
A|--0----5-5-5-0----5\3-3h5-5/7-8----8-8-8-8\77777\55555-----------|
D|--0----------0----5\3-3h5-5/7------------------------------------|

  This part is the piano but i figured I'd put it in anyways... it's also not completely right
  Bridge [Verse two (0:14-0:41)]
e|---------------------------------------------------|
B|--------5-----6-----5------------------------------|
G|------7---7-----7-----7----------5-5\7----------5--|
D|----7-------7-----7-----7------5-------5------7----|
A|--5-----------------------3-----------------8------|
D|---------------------------------------------------|

e|---------------------------------------------------|
B|--------5-----6-----7------------------------------|
G|------7---7-----7-----7----------5-5\7-5--------5--|
D|----7-------7-----7-----7------5--------------7----|
A|--5-----------------------3-----------------8------|
D|---------------------------------------------------|

e|---------------------------------------------------|
B|--------5-----6-----5------------------------------|
G|------7---7-----7-----7----------5-5\7----------5--|
D|----7-------7-----7-----7------5-------5------7----|
A|--5-----------------------3-----------------8------|
E|---------------------------------------------------|

e|---------------------------------------------------|
B|--------5-----6-----7------------------------------|
G|------7---7-----7-----7----------5-5\7-5--------5--|
D|----7-------7-----7-----7------5--------------7----|
A|--5-----------------------3-----------------8------|
D|---------------------------------------------------|

  Verse one(0:41-0:55)
e|-----------------------------------------------------------------|
B|-----------------------------------------------------------------|
G|-------7-7-7-----------------------------------------------------|
D|--0----7-7-7-0----5\3-3h5-5/7-5----5-5-5-5/3-3-3----5p3-3h5-5/7--|
A|--0----5-5-5-0----5\3-3h5-5/7-5----5-5-5-5/3-3-3----5p3-3h5-5/7--|
D|--0----------0----5\3-3h5-5/7-5----5-5-5-5/3-3-3----5p3-3h5-5/7--|

e|-----------------------------------------------------------------|
B|-----------------------------------------------------------------|
G|-------7-7-7-----------------------------------------------------|
D|--0----7-7-7-0----5\3-3h5-5/7------------------------------------|
A|--0----5-5-5-0----5\3-3h5-5/7-8----8-8-8-8\77777\55555-----------|
D|--0----------0----5\3-3h5-5/7------------------------------------|

e|---------------------------------------------------|
B|--------5-----6-----5------------------------------|
G|------7---7-----7-----7----------5-5\7----------5--|
D|----7-------7-----7-----7------5-------5------7----|
A|--5-----------------------3-----------------8------|
D|---------------------------------------------------|

e|---------------------------------------------------|
B|--------5-----6-----7------------------------------|
G|------7---7-----7-----7----------5-5\7-5--------5--|
D|----7-------7-----7-----7------5--------------7----|
A|--5-----------------------3-----------------8------|
D|---------------------------------------------------|

e|---------------------------------------------------|
B|--------5-----6-----5------------------------------|
G|------7---7-----7-----7----------5-5\7----------5--|
D|----7-------7-----7-----7------5-------5------7----|
A|--5-----------------------3-----------------8------|
D|---------------------------------------------------|

e|---------------------------------------------------|
B|--------5-----6-----7------------------------------|
G|------7---7-----7-----7----------5-5\7-5--------5--|
D|----7-------7-----7-----7------5--------------7----|
A|--5-----------------------3-----------------8------|
D|---------------------------------------------------|

e|-----------------------------------------------------------------|
B|-----------------------------------------------------------------|
G|-------7-7-7-----------------------------------------------------|
D|--0----7-7-7-0----5\3-3h5-5/7-5----5-5-5-5/3-3-3----5p3-3h5-5/7--|
A|--0----5-5-5-0----5\3-3h5-5/7-5----5-5-5-5/3-3-3----5p3-3h5-5/7--|
D|--0----------0----5\3-3h5-5/7-5----5-5-5-5/3-3-3----5p3-3h5-5/7--|

e|-----------------------------------------------------------------|
B|-----------------------------------------------------------------|
G|-------7-7-7-----------------------------------------------------|
D|--0----7-7-7-0----5\3-3h5-5/7------------------------------------|
A|--0----5-5-5-0----5\3-3h5-5/7-8----8-8-8-8\77777\55555-----------|
D|--0----------0----5\3-3h5-5/7------------------------------------|

e|------------------------------------------------|
B|------------------------------------------------|
G|------------------------------------------------|
D|--3----3-3-3-3----3-3-3-0----0-0-0-1----555555--|
A|--3----3-3-3-3----3-3-3-0----0-0-0-1----555555--|
D|--3----3-3-3-3----3-3-3-0----0-0-0-1----555555--|
                                          ......
e|------------------------------------------------|
B|------------------------------------------------|
G|------------------------------------------------|
D|--3----3-3-3-3----3-3-3-0----0-0-0-1----555555--|
A|--3----3-3-3-3----3-3-3-0----0-0-0-1----555555--|
D|--3----3-3-3-3----3-3-3-0----0-0-0-1----555555--|
                                          ......
e|------------------------------------------------|
B|------------------------------------------------|
G|------------------------------------------------|
D|--3----3-3-3-3----3-3-3-0----0-0-0-1----555555--|
A|--3----3-3-3-3----3-3-3-0----0-0-0-1----555555--|
D|--3----3-3-3-3----3-3-3-0----0-0-0-1----555555--|
                                          ......
e|------------------------------------------------|
B|------------------------------------------------|
G|------------------------------------------------|
D|--3----3-3-3-3----3-3-3-0----0-0-0-1------------|
A|--3----3-3-3-3----3-3-3-0----0-0-0-1------------|
D|--3----3-3-3-3----3-3-3-0----0-0-0-1------------|

(2:03-2:44) is mostly piano and drums. the guitar just plays some bar chords on
e|-----------|
B|-----------|
G|-----------|
D|--0-1-3-5--|
A|--0-1-3-5--|
D|--0-1-3-5--|
i'm sure you can figure it out yourself 

 (2:44-2:57)
e|-----------------------------------------------------------|
B|-----------------------------------------------------------|
G|-----------------------------------------------------------|
D|------------------------------5----5-5-5-3----5p3-3h5-5/7--|
A|------8-8-8-8-8-8-7-7-7-5-5-5-5----5-5-5-3----5p3-3h5-5/7--|
D|------------------------------5----5-5-5-3----5p3-3h5-5/7--|

e|-----------------------------------------------------------|
B|-----------------------------------------------------------|
G|-------7-7-7-----------------------------------------------|
D|--0----7-7-7-0----5\3-3h5-5/7------------------------------|
A|--0----5-5-5-0----5\3-3h5-5/7-8----8-8-8-8\77777\55555-----|
D|--0----------0----5\3-3h5-5/7------------------------------|

 (2:57-3:31)
e|------------------------------------------------|
B|------------------------------------------------|
G|------------------------------------------------|
D|--3----3-3-3-3----3-3-3-0----0-0-0-1----555555--|
A|--3----3-3-3-3----3-3-3-0----0-0-0-1----555555--|
D|--3----3-3-3-3----3-3-3-0----0-0-0-1----555555--|
                                          ......
e|------------------------------------------------|
B|------------------------------------------------|
G|------------------------------------------------|
D|--3----3-3-3-3----3-3-3-0----0-0-0-1----555555--|
A|--3----3-3-3-3----3-3-3-0----0-0-0-1----555555--|
D|--3----3-3-3-3----3-3-3-0----0-0-0-1----555555--|
                                          ......
a lead guitar starts over this part
e|------------------------------------------------|
B|------------------------------------------------|
G|------------------------------------------------|
D|--3----3-3-3-3----3-3-3-0----0-0-0-1----555555--|
A|--3----3-3-3-3----3-3-3-0----0-0-0-1----555555--|
D|--3----3-3-3-3----3-3-3-0----0-0-0-1----555555--|
                                          ......
e|------------------------------------------------|
B|------------------------------------------------|
G|------------------------------------------------|
D|--3----3-3-3-3----3-3-3-0----0-0-0-1----555555--|
A|--3----3-3-3-3----3-3-3-0----0-0-0-1----555555--|
D|--3----3-3-3-3----3-3-3-0----0-0-0-1----555555--|
                                          ......
e|------------------------------------------------|
B|------------------------------------------------|
G|------------------------------------------------|
D|--3----3-3-3-3----3-3-3-0----0-0-0-1----555555--|
A|--3----3-3-3-3----3-3-3-0----0-0-0-1----555555--|
D|--3----3-3-3-3----3-3-3-0----0-0-0-1----555555--|
                                          ......
e|-------------------------------------------------|
B|-------------------------------------------------|
G|-------------------------------------------------|
D|--0----0-0-0-0----0-0-0-3----3-3-3-5----5-5-5-1--|
A|--0----0-0-0-0----0-0-0-3----3-3-3-5----5-5-5-1--|
D|--0----0-0-0-0----0-0-0-3----3-3-3-5----5-5-5-1--|




| /  slide up
| \  slide down
| h  hammer-on
| p  pull-off
| ~  vibrato
Tap to rate this tab
 
# A B C D E F G H I J K L M N O P Q R S T U V W X Y Z