Song name
# A B C D E F G H I J K L M N O P Q R S T U V W X Y Z

Dogs Eye View - Umbrella tab

_______________________________________________________________________________
-------------------------------------------------------------------------------

                                  Umbrella
                                     by
                                Dogs Eye View

===============================================================================


+++++++++++++++
Standard Tuning (Strum A-chordingly)
+++++++++++++++

INTRO/LEAD

e|-----------------------------------------------------------|
B|-----------------------------------------------------------|
G|--------------------------------------Repeat-As------------|
D|----------------------------------------Needed-------------|
A|---------2--3--2-2--5--3--2--------------------------------|
E|-----3-----------------------------------------------------|


VERSE(chords)

           G         D         C

e|---------3---------2---------0-----------------------------|
B|---------3---------3---------1-----------------------------|
G|---------0---------2---------0----------Repeat-As----------|
D|---------0---------0---------2-----------Needed------------|
A|---------2--------(0)--------3-----------------------------|
E|---------3--------(2)-------(3)----------------------------|


CHORUS(chords)

         Cadd9(?)

e|---------3--------------------------------------------------|
B|---------3---------Strum-A-Bunch----------------------------|
G|---------0--------------------------------------------------|
D|---------2---------Then-Play-Verse--------------------------|
A|---------3-----------Riff-Above-----------------------------|
E|------------------------------------------------------------|


BRIDGE(chords)

           Am    D     G     C    Am     D     F     D/C(?)

e|---------0-----2-----3-----0-----0-----2-----1------0-------|
B|---------1-----3-----3-----1-----1-----3-----1------3-------|
G|---------2-----2-----0-----0-----2-----2-----2-----(2)------|
D|---------2-----0-----0-----2-----2-----0-----3------4-------|
A|---------0----(0)----2-----3-----0----(0)----3------5-------|
E|--------------(2)----3----(3)---------(2)----1--------------|

And then back to the verse...

Well Thats all there is to it... ill let you guys listen to the song and figure out what 
where... its really not a jigsaw puzzle!

QUICK UPSTROKES WILL GIVE YOU A GOOD POP ON THE CHORDS

...makes the song more fun/jazzy sounding


Tabbed by: Christopher Wilcott
Tap to rate this tab
# A B C D E F G H I J K L M N O P Q R S T U V W X Y Z