Guitaretab - guitar tabs
Song name
# A B C D E F G H I J K L M N O P Q R S T U V W X Y Z

Dokken - Its Not Love tab

Itís not Love- DOKKEN

transcribed by Garrison Vest 9-25-08 gwvest@yahoo.com


intro

e------------------------------------------------------------------------------|
B------------------------------------------------------------------------------|
G---9-9-9-9-9-9-9---8~~8-8-8-8-8-8-8--0--5-5-5-5-5-5-5--0--5~~5-5-5-5-5-5------|
D---7-7-7-7-7-7-7---7~~7-7-7-7-7-7-7--0--5-5-5-5-5-5-5--0--4~~4-4-4-4-4-4/7----|repeat
A------------------------------------------------------------------------------|
E------------------------------------------------------------------------------|

e------------------------------------|
B------------------------------------|
G------------------------------------|
D------------------------------------|
A------5---3---5---------------------|
E---/3---3---3-----------------------|
Fill

e-------------------------------------|
B-------------------------------------|
G-2-------10----7---------------------|
D-2-------7-----7-----------------7\--|
A-0-0-0-0---0-0-----0-0-0-ect-0-0-7\--|slide down
E-------------------------------------|

e------------------------------------|
B------------------------------------|
G-2-------10----7-------7--7--7------|
D-2-------7-----7---s/5--4--5---5----|
A-0-0-0-0---0-0----------------------|
E------------------------------------|

e------------------------------------|
B------------------------------------|
G-2-------10----7--------------------|
D-2-------7-----7--------------------|
A-0-0-0-0---0-0--------0-0-0-ect-----|
E------------------------------------|

e----------------3-------------------|
B----------------3-------------------|
G----------------0-------------2-----|
D---------2------0-------------2-----|
A---------2------x------3-2~~--0-----|
E-0---3---0--0-2-3-------------------|


Verse
e------------------------------------------------------------------------------|
B------------------------------------------------------------------------------|
G---9-9-9-9-9-9-9---8~~8-8-8-8-8-8-8--0--5-5-5-5-5-5-5--0--5~~5-5-5-5-5-5------|
D---7-7-7-7-7-7-7---7~~7-7-7-7-7-7-7--0--5-5-5-5-5-5-5--0--4~~4-4-4-4-4-4/7----|repeat
A------------------------------------------------------------------------------|
E------------------------------------------------------------------------------|

e------------------------------------|
B------------------------------------|
G------------------------------------|
D------------------------------------|
A------5---3---5---------------------|
E---/3---3---3-----------------------|
Fill

Pre-chorus
    e-------------------------------------|
    B-------------------------------------|
    G-2-------10----7---------------------|
    D-2-------7-----7-----------------7\--|
    A-0-0-0-0---0-0-----0-0-0-ect-0-0-7\--|slide down
    E-------------------------------------|
Itís not love-  that left you standing

    e------------------------------------|
    B------------------------------------|
    G-2-------10----7-------7--7--7------|
    D-2-------7-----7---s/5--4--5---5----|
    A-0-0-0-0---0-0-------------------0--|
    E------------------------------------|
Itís not love-  that left you cold

    e------------------------------------|
    B------------------------------------|
    G-2-------10----7--------------------|
    D-2-------7-----7--------------------|
    A-0-0-0-0---0-0--------0-0-0-ect-----|
    E------------------------------------|
Itís not love-   mis-understanding


    e----------------3--------------------|
    B----------------3--------------------|
    G----------------0--------------------|
    D---------2------0--------------------|
    A---------2------x------3-2~~---------|
    E-0---3---0--0-2-3--------------------|

Only a mistake  thereís nothing left to take

Chorus

    e------------------------------------------------------3-------2---------|
    B------------------------------------------------------3-------3---------|
    G--9--8--9----------------------9--------8-------------0-------2---------|
    D--7--7--7----------------------7--------7-------------0-------0---------|
    A----------------5---3---5-----------------------------2-----------------|
    E------------/3----3---3---0---------------------------3-----------------|
     Why baby why      did you let me let you go       and leave you so lonely


    e------------------------------3----------------------------------------|
    B------------------------------3----------------------------------------|
    G--9--8--9---------------------0-------------------------2--------------|
    D--7--7--7---------------------0-------------3-----------2--------------|
    A----------------5---3---5-----2-------------3-----------0--------------|
    E------------/3----3---3---0---3-------------1--------------------------|
      Why baby why   did you have to hold on you know its not love anymore

Verse
e------------------------------------------------------------------------------|
B------------------------------------------------------------------------------|
G---9-9-9-9-9-9-9---8~~8-8-8-8-8-8-8--0--5-5-5-5-5-5-5--0--5~~5-5-5-5-5-5------|
D---7-7-7-7-7-7-7---7~~7-7-7-7-7-7-7--0--5-5-5-5-5-5-5--0--4~~4-4-4-4-4-4/7----|repeat
A------------------------------------------------------------------------------|
E------------------------------------------------------------------------------|

e------------------------------------|
B------------------------------------|
G------------------------------------|
D------------------------------------|
A------5---3---5---------------------|
E---/3---3---3-----------------------|
Fill

Pre-chorus 2
    e-------------------------------------|
    B-------------------------------------|
    G-2-------10----7---------------------|
    D-2-------7-----7-----------------7\--|
    A-0-0-0-0---0-0-----0-0-0-ect-0-0-7\--|slide down
    E-------------------------------------|
Itís not love-  that left you standing

    e------------------------------------|
    B------------------------------------|
    G-2-------10----7-------7--7--7------|
    D-2-------7-----7---s/5--4--5---5----|
    A-0-0-0-0---0-0-------------------0--|
    E------------------------------------|
Itís not love-  that left you cold

    e------------------------------------|
    B------------------------------------|
    G-2-------10----7--------------------|
    D-2-------7-----7--------------------|
    A-0-0-0-0---0-0--------0-0-0-ect-----|
    E------------------------------------|
Itís not love-   mis-understanding

[ Tab from: http://www.guitaretab.com/d/dokken/5486.html ]
    e----------------3--------------------|
    B----------------3--------------------|
    G----------------0--------------------|
    D---------2------0--------------------|
    A---------2------x------3-2~~---------|
    E-0---3---0--0-2-3--------------------|

Only a mistake thereís nothing left to take

Chorus 2

    e------------------------------------------------------3-------2---------|
    B------------------------------------------------------3-------3---------|
    G--9--8--9----------------------9--------8-------------0-------2---------|
    D--7--7--7----------------------7--------7-------------0-------0---------|
    A----------------5---3---5-----------------------------2-----------------|
    E------------/3----3---3---0---------------------------3-----------------|
      Why baby why   did you let me let you go     and leave you so lonely


    e--------------------------------------------------3--------------------|
    B--------------------------------------------------3--------------------|
    G--9--8--9----------------------9--------8---------0-----2--------------|
    D--7--7--7----------------------7--------7---------0-----2--------------|
    A----------------5---3---5-------------------------2-----0--------------|
    E------------/3----3---3---0-----------------------3--------------------|
      Why baby why      stop play with my heart        I told ya-

Bridge

    e--------2-2-2-2-----------------------------2-2-2-2--------3-----------|
    B--------3-3-3-3-----------------------------3-3-3-3--------3-----------|
    G--------2-2-2-2-----------------2-----------2-2-2-2--------0----2------|
    D--------0-0-0-0-----------------2-----------0-0-0-0--------0----2------|
    A--0--3-----------3--0--3--0-----0-----0--3-----------3-0---2----0------|
    E-----------------------------3-----------------------------3-----------|
      Itís not Love telling you to feel this way Itís not love   telling you can never   change


    e--------2-2-2-2-----------------------------3------------------------------|
    B--------3-3-3-3-----------------------------3------------------------------|
    G--------2-2-2-2--------------------2--------0------------------------------|
    D--------0-0-0-0--------------------2--------0------------------------------|
    A--0--3-----------3--0--3--0--------0--------2------------------------------|
    E--------------------------------3-----------3------------------------------|
     Itís not Love when I told you is he putting you down  down, down, down


Solo

e------------------------------------|
B------------------------------------|
G-9-------7-----7-------------5------|
D-7-------7-----7-----7--5--7---7----|
A---0-0-0---0-0----------------------|
E------------------------------------|

e------------------------------------|
B------------------------------------|
G-9-------10----7-------7--7--7------|
D-7-------7-----7---s/5--4--5---5----|
A--0-0-0----0-0----------------------|
E------------------------------------|

e------------------------------------|
B------------------------------------|
G-9-------7-----7-------------5--4---|
D-7-------7-----7-----7--5--7--------|
A---0-0-0---0-0----------------------|
E------------------------------------|


e--3---------------------------------|
B--3---------------------------------|
G--0--------------------------2------|
D--0-------------3------------2------|
A--2-------------3------------0------|
E--3-------------1-------------------|


Verse
e------------------------------------------------------------------------------|
B------------------------------------------------------------------------------|
G---9-9-9-9-9-9-9---8~~8-8-8-8-8-8-8--0--5-5-5-5-5-5-5--0--5~~5-5-5-5-5-5------|
D---7-7-7-7-7-7-7---7~~7-7-7-7-7-7-7--0--5-5-5-5-5-5-5--0--4~~4-4-4-4-4-4/7----|
A------------------------------------------------------------------------------|repeat
E------------------------------------------------------------------------------|

e------------------------------------|
B------------------------------------|
G------------------------------------|
D------------------------------------|
A------5---3---5---------------------|
E---/3---3---3-----------------------|
Fill

Pre-chorus 3
    e-------------------------------------|
    B-------------------------------------|
    G-2-------10----7---------------------|
    D-2-------7-----7-----------------7\--|
    A-0-0-0-0---0-0-----0-0-0-ect-0-0-7\--|slide down
    E-------------------------------------|
Itís not love-that left you standing

    e------------------------------------|
    B------------------------------------|
    G-2-------10----7-------7--7--7------|
    D-2-------7-----7---s/5--4--5---5----|
    A-0-0-0-0---0-0-------------------0--|
    E------------------------------------|
Itís not love-that left you cold

    e------------------------------------|
    B------------------------------------|
    G-2-------10----7--------------------|
    D-2-------7-----7--------------------|
    A-0-0-0-0---0-0--------0-0-0-ect-----|
    E------------------------------------|
Itís not love-mis-understanding


    e----------------3--------------------|
    B----------------3--------------------|
    G----------------0--------------------|
    D---------2------0--------------------|
    A---------2------x------3-2~~---------|
    E-0---3---0--0-2-3--------------------|
                     Em        Gm
Only a mistake thereís nothing left to take

Chorus 3

    e------------------------------------------------------3-------2---------|
    B------------------------------------------------------3-------3---------|
    G--9--8--9----------------------9--------8-------------0-------2---------|
    D--7--7--7----------------------7--------7-------------0-------0---------|
    A----------------5---3---5-----------------------------2-----------------|
    E------------/3----3---3---0---------------------------3-----------------|
    Why baby why     did you let me let you go      and leave you so lonely


    e-------------------------------------------------3----------------------|
    B-------------------------------------------------3----------------------|
    G--9--8--9----------------------------------------0----------------------|
    D--7--7--7-----------------------2----------------0----------------------|
    A----------------5---3---5-------2----------------2--3--2----------------|
    E------------/3----3---3---0-----0----------0--2--3--------3~~-----------|
     Why baby why           stop play with my heart I told ya-


    e---------------------------------|
    B---------------------------------|
    G--9--8--9------------------------|
    D--7--7--7------------------------|  repeat
    A----------------5---3---5--------|
    E------------/3----3---3---0------|
          Why baby why
Related for Its Not Love tab