Song name
# A B C D E F G H I J K L M N O P Q R S T U V W X Y Z

Don Broco - You Wanna Know tab

Just gonna start off by saying that I know this won't be 100% accurate, but I thought
I'd at least put up what I'd got for this song so far to help anyone else out as there's
no full tab for this song yet, I'm not gonna bother putting down the strumming patterns 
because if you need help figuring that out, well...

Tuning: Dropped C#

Intro Pt. 1:

|-----------------|
|-----------------|
|-----------------|
|--5-----------4--|
|--3--2--0--5--2--|
|-----2--0--5-----|
   *  *  *  *  *

Intro Pt. 2/Chorus: x2

|--3-3---------2--2--5--2--|
|--3-7---------5--3--8--2--| You can easily hear when to move up the note on
|--7-7---------4--2--7--4--| the F#.
|--5-5---------2--0--5--4--|
|--3-3------5--2--0--5--2--|
|-------5-7----2--0--5-----|

Verses: Delay effect.

|---------------------------------------------------------------|
|----------------------------------------10--------8-----5--10--|
|--------7-------3-------7----3-3-----7---------7----------7----|
|--5-54-4--5-50-0--5-54-4--5-5---0-5-5--5----5-5--5--5-5--5-----|
|---------------------------------------------------------------|
|---------------------------------------------------------------|
   * ** *  * ** *  * ** *  * ** *  * ** *    * ** *  * ** *

Verse 2 Riff: Delay Effect

|---------------------------------------------------------------------------|
|---------------10p85h7----------------10--------8-----5--10--10p85h7-------|
|--------7-7/9----------7h9/11------7---------7----------7-----------7h9/11-|
|--5-54-4------------------------5-5--5----5-5--5--5-5--5-------------------|
|---------------------------------------------------------------------------|
|---------------------------------------------------------------------------|
   * ** *                        * ** *    * ** *  * *  *

Bridge: Delay Effect

|----------------------------------------|
|----------88888888~----------88888888~--| Keep Repeating.
|------0------------------7---77777777~--|
|----5--0---------------5--0--00000000~--|
|--7------------------7------------------|
|----------------------------------------|

Outro:

|-----------------------------|
|-----------------------------|
|--12-12--14-14-14-12--12-12--| Repeat til end, pattern isn't too hard to
|--12-12--12-12-12-12--12-12--| Figure out and you can easily hear when you
|--10-10--10-10-10-10--10-10--| Need to move up on the F#.
|--10-10--10-10-10-10--10-10--|

That's all I've got really, just to give anyone else an idea how to get a more accurate
finished tab.
Tap to rate this tab
 
# A B C D E F G H I J K L M N O P Q R S T U V W X Y Z