Song name
# A B C D E F G H I J K L M N O P Q R S T U V W X Y Z

Don Omar - Adios chords

Highlighted       Show chord diagrams
-------------------------------------------------------------------------------
				ADIOS - Don Omar
-------------------------------------------------------------------------------
Tabbed by: Rafa88offspring
Email: Rafa88offspring@hotmail.com

Tuning: Standard (EADgbe)

Una de las mejores canciones de Don Omar :)

Cualquier cosa ahí está mi mail.

Intro
Guitarra principal
e|-------0-------0-------0-------0-------0-------0-0--|
B|-0-1-----0-1-----0-1-----0-1-----0-1-----0-1--------|
G|-----2-------2-------2-------2-------2-------2------|
D|----------------------------------------------------|
A|----------------------------------------------------|
E|----------------------------------------------------|

Am  G	    Dm	 F
Adiós me fui, lejos de ti
Am G		Dm  F
Nade lo que llore, pero llegué
Am   G			Dm
Sólo quise antes de marchar
		    F		Am
Decirte que algún día volveré a amar
	    G
Y si hasta ese día he de llorar 
Dm	     F			 Am
no sabrás de mi te lo puedo asegurar
	    G			Dm
Y si algún día las cosas andan mal
	      F			Am
Y necesitas un hombro donde llorar
G           Dm   F
Podrás llamar

F					Am   G   Dm
Quizás querrás que regrese y será tarde ya
F
Será tarde ya


Durante esta última parte
Guitarra principal repite el intro
mientras que un violín toca:

e|-12p10-------------12p10-------------12p10-------------12p10--------------|
B|-------12-13-10-10-------12-13-10-10-------12-13-------------12-13--------|
G|-------------------------------------------------12-12-------------12-12--|
D|--------------------------------------------------------------------------|
A|--------------------------------------------------------------------------|
E|--------------------------------------------------------------------------|

e|-12p10-------------12p10-------------12p10---------------|
B|-------12-13-10-10-------12-13-10-10-------12-13--13-15--|
G|---------------------------------------------------------|
D|---------------------------------------------------------|
A|---------------------------------------------------------|
E|---------------------------------------------------------|

El sonido de la guitarra al momento de "Quizás querrás que regrese"
es
e|-15b(16)br--|
B|------------|
G|------------|
D|------------|
A|------------|
E|------------|


************************************
| /   slide up
| \   slide down
| h   hammer-on
| p   pull-off
| ~   vibrato
| +   harmonic
| x   Mute note
| b   Bend
| pb  Pre-bend
| br  Bend release
| pbr Pre-bend release
| brb Bend release bend
************************************
Tap to rate this tab
 
# A B C D E F G H I J K L M N O P Q R S T U V W X Y Z