Song name
# A B C D E F G H I J K L M N O P Q R S T U V W X Y Z

Don Tetto - Adios tab

Help us improve GuitareTab! Take a short survey!
LA CANCION SE HACE EN 5
INTRO / ESTROFA

E||--------------------------------------------------------------|
B||------2-------2-------2-----------2-------2---3p2p0-3p2p0-3p2-|
G||----2---2---2---2---2---2---2---2---2---2---2-----------------|
D||------------------------------0-------0-----------------------|
A||--0-------0-------2-------2-----------------------------------|
E||--------------------------------------------------------------|

ESTROFA 1
A5           B5            D5
  No he dejado de extraarte, en mi mente siempre estas
A5      B5         D5
  Es inutil olvidarte, sin ti ya nada es igual
A5       B5               D5
  Y el vacio en mi interior, solo crece absorbiendo el dolor
A5         B5         C#5 D5  E5
  Como el de decir adioooos

CORO:
A5                                    F#5
 Hoy vas con rumbo hacia ningun lugar Y te puedo encontrar
A5                                           F#5
 Brillando en el cielo cuando el sol no esta En noches sin final
A5                            F#5
 Me pierdo, y el tiempo que pasa en silencio
E5
 Me recuerda que soy yo quien muere
A5
 Al momento en que te vas


--------------------|
--2h3p2h3p2h3p2h----|
--------------------|
--------------------|
--------------------|
--------------------|

ESTROFA 2
Y tengo que confesar que extrao tu forma de hablar
Que las noches son mas frias en la cruda soledad
Que tu ausencia me envenena el alma, duele respirar
Sabiendo que ya no estas

CORO
Hoy vas con rumbo hacia ningun lugar
Y te puedo encontrar
Brillando en el cielo cuando el sol no esta
En noches sin final
Me pierdo, y el tiempo que pasa en silencio
Me recuerda que soy yo quien muere
Al momento en que te vas


PUNTEITO:
E||--12--12--12--12--14--14--12--12--12--12--12--12--14--14--12--12--|
B||----10--10--10--10--10--10--10--10--9---9---9---9---9---9---9---9-|

10--10--10--10--12--12--10--10------------------------------|
--7---7---7---7---7---7---7---7---10b~-10b-12~12~12~12------|
Related for Adios tab