Song name
# A B C D E F G H I J K L M N O P Q R S T U V W X Y Z

Donavon Frankenreiter - On My Mind tab

Well, I've been mooching off al ya'alls hard work, I figured I oughtta contribute!

None of the other versions of this posted here sounded right to me, so I went and done 
figered'er out!

More potent than Spanich Fly, raw oysters, and tiger tail all rolled into one.

If you play this song for your lady and don't get some, there is something wrong with 
 Just remember to use the power for good, not evil.

Chris in Flint-town Michigan...brrrr it's cold up here

secondemailforme@gmail.com


{{{{Verse}}}

    Amaj7               Bm7

E:------x-x-------------7-x-x-9-9---------------|
B:---5--x-x-5-5---------7-x-x-9-9---------------|
G:---6--x-x-6-6---------7-x-x-7-7---------------|
D:---6--x-x-6-6---------7-x-x-------------------|
A:---x--x-x-------------6-x-x-------------------|
E:---5--x-x-------------7-x-x-------------------|

     Ohh baby, let's get down tonight....

{{{pre-chorus}}}
    Dmaj7	Dmin7           Amaj7

E:---x-x-x-x-x---5-x-x-x-x------x------5h7p5-------------|
B:---7-x-x-x-x---6-x-x-x-x------5-----------5h7p5--------|
G:---6-x-x-x-x---5-x-x-x-x------6----------------4h6p4s2-|
D:---7-x-x-x-x---x-x-x-x-x------6------------------------|
A:---5-x-x-x-x---5-x-x-x-x------x------------------------|
E:---x-x-x-x-x---x-x-x-x-x------5------------------------|

     Even though I can't see you all the time.....

   Dmaj7	Dmin7           Amaj7

E:---x-x-x-x-x---5-x-x-x-x------x----------------0h2-5---|
B:---7-x-x-x-x---6-x-x-x-x------5------------0h2---------|
G:---6-x-x-x-x---5-x-x-x-x------6----------2-------------|
D:---7-x-x-x-x---x-x-x-x-x------6------2h4---------------|
A:---5-x-x-x-x---5-x-x-x-x------x------------------------|
E:---x-x-x-x-x---x-x-x-x-x------5------------------------|

   I Gotta let you know you're on my mind....


{{{Chorus}}}

     A         G7       Bm7

E:---5--x-x-x--3-x-x-x-x-2--------|
B:---5--x-x-x--3-x-x-x-x-3--------|
G:---6--x-x-x--4-x-x-x-x-2--------|
D:---7--x-x-x--3-x-x-x-x-4--------|
A:---7--x-x-x--5-x-x-x-x-2--------|
E:---5--x-x-x--3-x-x-x-x-2--------|

Girl you're, on my mind, you're on my mind again....


{{{Turnaround}}}

    Amaj7                        Dmaj7

E:---x-----------------------------x----|
B:---5-----------------------------7----|
G:---6-----------------------------6----|
D:---6-----------------------------7----|
A:---x-----------------------------5----|
E:---5-----------------------------x----|

Well I gotta let you know, that I will never let you go
Tap to rate this tab
# A B C D E F G H I J K L M N O P Q R S T U V W X Y Z