Song name
# A B C D E F G H I J K L M N O P Q R S T U V W X Y Z

Donavon Frankenreiter - Sing A Song tab

Help us improve GuitareTab! Take a short survey!
-------------------------------------------------------------------------------
			     Sing a Song - Donavon Frankenreiter
-------------------------------------------------------------------------------
Tabbed by: Stroem
Tuning: Standard


Intro:
      A             C#m          F#m
e|----5------5------4-----4------9----------------------9---9---7---7---|
B|----5------5------5-----5------10--10-10h11p10---10-------------------|
G|----6------6------6-----6------11---------------9-------9-------7-----|x2
D|----7------7------6-----6------11-------------------------------------|
A|----7------7--0-4-4-0-4-4--0-9-9--------------------------------------|
E|--5-5--0-5-5----------------------------------------------------------|

Verse: A - C#m - F#m - F#m


Prechorus: A - G - F#m - B - E x1


Chorus: A - G - D - D


Bridge: F#m - A - B - D - E x2


Solo(3.15): Same as chorus.

e|-------------------------|
B|--------10---------------|
G|-------------------12----|
D|---s12-------12----------|
A|-------------------------|
E|-------------------------|
Related for Sing A Song tab