Donots - Saccharine Smile tab

DONOTS-- SACCHARINE SMILE


INTRO

-------------------------------------------------------------------------|
------------------------------------0------------------------------------|
--------0------0------0------0--------0----------------------------------|
------9------4------5------2------2--------------------------------------|
---10------5------7------3------3----------------------------------------|
-------------------------------------------------------------------------|


VERSES

--------------------------------|
--------------------------------|
---------777---999---555--------|
---555---777---999---555--------|  X3
---555---555---777---333--------|
---333--------------------------|


--------------------------------|
--------------------------------|
---------444---5~~---77---------|
---555---444---5~~---77---------|
---555---222---3~~---55---------|
---333--------------------------|

--------------------------------------------------------|
--------------------------------------------------------|
---------------------7777-77-77777----9-9---7-7--5-5----|
---5555--77--77777---7777-77-77777----9-9---7-7--5-5----|   X2
---5555--55--55555---5555-55-55555----7-7---5-5--3-3----|
---3333--33--33333--------------------------------------|

CHORUS

-------------------------------------------------------------------------|
-------------------------------------------------------------------------|
-------------------7777777777777777--------------------5555555555555555--|
-5555555555555555--7777777777777777--2222222222222222--5555555555555555--|
-5555555555555555--5555555555555555--2222222222222222--3333333333333333--|
-3333333333333333--------------------0000000000000000--------------------|

-------------------------------------------------------------------------|
-------------------------------------------------------------------------|
----------------------4444444444444444--555555555555555------------------|
---5555555555555555---4444444444444444--555555555555555------------------|
---5555555555555555---2222222222222222--333333333333333------------------|
---3333333333333333------------------------------------------------------|

-------------------------------------------------------------------------|
-------------------------------------------------------------------------|
---88888888---101010101010-----------------------------------------------|
---88888888---101010101010-----------------------------------------------|
---66666666---8-8-8-8-8-8------------------------------------------------|
-------------------------------------------------------------------------|

SOLO

----7-----------7------------7/8\7------|
------8-----8-----8-----8---------------|
--------7-7---7-----7-7---7-------------|
----------------------------------------|
----------------------------------------|
----------------------------------------|
Tap to rate this tab
 
# A B C D E F G H I J K L M N O P Q R S T U V W X Y Z