Guitaretab - guitar tabs
Song name
# A B C D E F G H I J K L M N O P Q R S T U V W X Y Z

Donovan - Sadness tab

Highlighted       Show chord diagrams
SADNESS

E				A
Sadness is in your eye
E
Who could have made you cry?
A		Am		E
My lullaby can fly you out of there
F#m				E
Roll along the sleepy dream, deep
F#m				E
Roll along the sleepy dream, deep


E				A
Salty tear down your cheek
E
Drowning the words you speak.
A		Am		E
My lullaby can dry your every care
F#m				E
Roll along the sleepy dream, deep
F#m
Roll along the sleepy dream

A	G#m	     F#m
Sweet dream, my baby lie
B	A	E
Here in my arms tonight
A	G#m		F#m
Donít cry Iíll hold you tight,
	A	C		B
And soothe all your worry away.


E				A
Sadness is in your eye
E
Who could have made you cry?
A	Am			E
My lullaby can fly you out of there
F#m				E
Roll along the sleepy dream, deep
F#m
Roll along the sleepy dream -


A	G#m		F#m
Sweet dream, my baby lie

B	A	E
Here in my arms tonight
A	G#m	F#m
Donít cry Iíll hold you tight,
	A	C		B
And soothe all your worries away.


E				A
Sadness is in your eye
E					A
Who could have made you cry?
E				A
Sadness is in your eye
E			A 	Em
Sadness

[ Tab from: http://www.guitaretab.com/d/donovan/153499.html ]
OK and here's the picking structure for the verse.  This is easier if you use the chord 
above.   The rest of the song just picks up and down over the chords above so I won't 
tabbing it out.


E---------------------------------------------------------------------------|
B----------0------------2--------1------0-----------------------------------|
G---1-----------1---------------------------------------------2-------------|
D-----------------------------------------------------2/4-----------4-------|
A---------------------------------------------------------------------------|
E---0-------------------0----------------0-------0--------------------------|
      E						  A
    Sad-ness      is       in       your    eye

E-----------------------------------------------------------------------------|
B-----------0------------2--------1------0------------------------------------|
G---1-------------1--------------------------------------------2--------------|
D------------------------------------------------------2/4-----------4--------|
A-------------------------------------------------------0---------------------|
E---0--------------------0----------------0-------0---------------------------|
      E						  A
     Who could have made    you     cry?            My     lul  -  a   -

E------------0--------------------0---------------0-------------------|
B------------2--------------------1---------------0-------------------|
G-------2--------------------2----------------1-----------------------|
D---------------------------------------------------------------------|
A---0-------------------0---------------------------------------------|
E-------------------------------------------0----------0--------------|
     A		        Am		E
   - by             could fly	  you out of here


Hope that makes sense.  Enjoy!  Ryan x
Related for Sadness tab