Guitaretab - guitar tabs
Song name
# A B C D E F G H I J K L M N O P Q R S T U V W X Y Z

Dont Look Down - Another Day tab

Don't Look Down - Another Day
By:Andrew Mcshan (Guitarguyx182@aol.com)
Intro
----------------------------------------------------------------
----------------------------------------------------------------
---------------------------------------------------------------- x4
----------44/5-------7-5/4/5-0-------2-2-4/5/4-2-0--------------
--22-------------55---------------0-0---------------------------
----------------------------------------------------------------

------------------------------------------------
------------------------------------------------
---4-4---7-7--------------------10--------------
---4-4---7-7---5-5---2-2-----X------------------
---2-2---5-5---5-5---2-2-----8------------------
------------------3-3---0-0---------------------

------------------------------------------------
------------------------------------------------
------------------------------------------------
---9-~~~~~~~~~~``-------------------------------
---9`~~~~~~~~~~~--------------------------------
---7-~~~~~~~~~~~--------------------------------
Verse 
------------------------------------------------
------------------------------------------------
------------------------------------------------
------------------------------------------------
---2-2---5-5------------------------------------
------------------3-3---0-0---------------------
[ Tab from: http://www.guitaretab.com/d/dont-look-down/121624.html ]
-------------------------------------------------
-------------------------------------------------
-4-----------------------------------------------
-4-----------------------------------------------
-2-----------------------------------------------
-------------------------------------------------
PM ................
Chorus
------------------------------------------------
------------------------------------------------
---4-4-7-x-7-x-7--------------------------------
---4-4-7-x-7-x-7-7-7-5-5------------------------
---2-2-5-x-5-x-5-7-7-5-5------------------------
----------------------5-5-3-3-------------------
Bridge
------------------------------------------------
------------------------------------------------
---4-4---------7-7-----4-4------7-7-------------
---4-4-5-5---7-7-----4-4-5-5-7-7----------------
---2-2-5-5---5-5-----2-2-5-5-5-5----------------
---------3-3------------------3-3---------------
Guitar 2 Plays This
------------------------------------------------
------------------------------------------------
---10-------------------------------------------
---x~~~~~~~~~~~~~~~-----------------------------
---8~~~~~~~~~~~~~~~-----------------------------
----~~~~~~~~~~~~~~~-----------------------------

Chorus

End on B

Just another day and im far away from being myself
just another situation but i think im someone else
sick of all your stories thinking that it could be me
when i look in the mirror nothing is all i see

YEA its just another day goes by
 another day (fades away)
YEA its just another day goes by
 another day (fades away)

just another day and i dont know what to do
im siting and plotting my next move through
sick of all your storys and peices left behind
memorys flow through my head but they never DIE 

YEA its just another day goes by
 another day (fades away)
YEA its just another day goes by
 another day (fades away)

Bridge

just another day and i dont know what to do
im siting and plotting my next move through
sick of all your storys and peices left behind
memorys flow through my head but they never DIE 

YEA its just another day goes by
 another day (fades away)
YEA its just another day goes by
 another day (fades away)

repet and fade
Related for Another Day tab
Advertisement will be closed in 10 seconds