Song name
# A B C D E F G H I J K L M N O P Q R S T U V W X Y Z

Doom Unit - Killing Time tab

Doom Unit - Killing Time

Tuning: Drop C

h = hammer
p = pull off
s = slide


Intro:

D-----------------------------------------------------------|
A-----------------------------------------------------------|
F-----------------------------------------------------------|
C-----------------------------------------------------------|
G-----------------------------------------------------------|
C---0-0-----0-0-----0-0------7s0----------------------------|

Main Chorus Riff:

D----------------------------------------------------------|
A----------------------------------------------------------|
F----------------------------------------------------------|  x3
C----------------------------------------------------------|
G-------------------------------------5--------------------|
C---0-0-----0-0-----0-0-----0h3p0-----5--------------------|


Main chorus riff end:

D------------------|
A------------------|
F------------------|
C-----------5------|
G--0--3--5--3------|
C--0--3--5---------|

Verse Riff : (I know the wise man is always right...never seen forgiveness in his eyes)

D----------------------------------------------------------------------|
A----------------------------------------------------------------------|
F-------------------------------------------------5--7-----------------|
C-------------------------------------------------3--5-----------------|  x4
G-------------------------------------------------3--5-----------------|
C---0-0-----0-0-----0-0-----0-0-----0-0----0-0----3--5-----------------|

Interlude : (This is where it all ends....it's my deliverance.....I'd rather lay down 
die then feel like a fool...)

D---------------------------------------|------------------------------------------|
A---------------------------------------|------------------------------------------|
F----5---5----5---5---------------------|----5---5----5---5------------------------|
C------5--------5-------7-----3---------|------5--------5-------7-------3------3s5-|
G--3--------3--------5----3h5----5--3h5-|---3--------3-------5-----3h5-----5-------|
C---------------------------------------|------------------------------------------|


Interlude :


       I'll rather lay down n die...   -   if I'm right... I'm satisfied
D---------------------------------------|---------------------------------------|
A---------------------------------------|---------------------------------------|
F----5---5----5---5---------------------|----5------------------10--------------|
C------5--------5-----7------3----------|---------------------------------------|
G--3--------3-------5---3h5-----5---3h5-|----3------------------8---------------|
C---------------------------------------|---------------------------------------|


Chorus:

  (killing time killing time)              (we're going down,down,down,down)
D-----------------------------|         |-------------------------------------|
A-----------------------------|         |-------------------------------------|
F-----------------------------| x3      |-------------------------------------|
C-----------------------------|         |-------------------------------------|
G------------------------5----|         |------------------7---5---3---5------|
C--00---00---00---0h3p0--5----|         |------------------7---5---3---5------|


SOLO:

D---------------|------------------|----------------------|----------8---------------|
A-------6h8-----|---------6h8s10---|--8s10---10---6h8-----|--10---10---10---10---8s6-|
F--7--7------7--|---7--7-----------|-------------------7--|--------------------------|
C---------------|------------------|----------------------|--------------------------|
G---------------|------------------|----------------------|--------------------------|
C---------------|------------------|----------------------|--------------------------|


Enjoy..:)
www.doomunit.com
Tap to rate this tab
 
# A B C D E F G H I J K L M N O P Q R S T U V W X Y Z