Song name
# A B C D E F G H I J K L M N O P Q R S T U V W X Y Z

Doors - Soft Parade tab

                               the soft parade
                                  the doors
                        tabed by a kid with hemophilia


|-------------------------------------------------------------------------|
|-------------------------------------------------------------------------|
|----9--9------9--9-----9--9--7--5--7--5-----9--7--9-----9--7--5--7--5----|
|7---------5--------3--------------------7-----------5-----------------7--|
|-------------------------------------------------------------------------|
|-------------------------------------------------------------------------|

|-------------------------------------------------------------------------|
|-------------------------------------------------------------------------|
|9--14--12--10--9--14--12--10--9-14-12-10--9--2-5--7--9--2--5--7--2-------|
|-------------------------------------------------------------------------|
|-------------------------------------------------------------------------|
|-------------------------------------------------------------------------|

|-------------------------------------------------------------------------|
|-------------------------------------------------------------------------|
|9--9--7--5--7--5-----9--7--9-----9--7--5--7------------------------------|
|------------------7-----------5--------------7---------------------------|
|-------------------------------------------------------------------------|
|-------------------------------------------------------------------------|

|-------------------------------------------------------------------------|
|-------------------------------------------------------------------------|
|9--14--12--10--9--14--12--10--9-14-12-10--9--2-5--7--9--2--5--7--2-------|
|-------------------------------------------------------------------------|
|-------------------------------------------------------------------------|
|-------------------------------------------------------------------------|
Tap to rate this tab
# A B C D E F G H I J K L M N O P Q R S T U V W X Y Z