Song name
# A B C D E F G H I J K L M N O P Q R S T U V W X Y Z

Doors - Bird Of Prey tab

easy

e----------------------------------|
B----------------------------------|
G----------------------------------|
D----------------------------------|
A-------5p0-3---------5p0-3--------|
E----5-------------5---------------|

    Bird of prey  bird of prey


e----------------------------------|
B----------------------------------|
G----------------------------------|
D-----7---0-3-------7---0-3--------|
A----------------------------------|
E----------------------------------|

     Fly-in high    fly-in high

e----------------------------------|
B----------------------------------|
G----------------------------------|
D----7---0--3-3-30-----------------|
A----------------------------------|
E----------------------------------|

    In the summer sky

e----------------------------------|
B----------------------------------|
G----------------------------------|
D----------------------------------|
A-------5p0-3---------5p0-3--------|
E----5-------------5---------------|

    Bird of prey  bird of prey


e----------------------------------|
B----------------------------------|
G----------------------------------|
D-----7---0-3-------7---0-3--------|
A----------------------------------|
E----------------------------------|

     Fly-in high    fly-in high

e----------------------------------|
B----------------------------------|
G----------------------------------|
D----7---0--3-3-30-----------------|
A----------------------------------|
E----------------------------------|

    gently pass on by


e----------------------------------|
B----------------------------------|
G----------------------------------|
D----------------------------------|
A-------5p0-3---------5p0-3--------|
E----5-------------5---------------|

    Bird of prey  bird of prey


e----------------------------------|
B----------------------------------|
G----------------------------------|
D-----7---0-3-------7---0-3--------|
A----------------------------------|
E----------------------------------|

     Fly-in high    fly-in high

e----------------------------------|
B----------------------------------|
G----------------------------------|
D----7---0--3-3-30-----------------|
A----------------------------------|
E----------------------------------|

    am i going to die

e----------------------------------|
B----------------------------------|
G----------------------------------|
D----------------------------------|
A-------5p0-3---------5p0-3--------|
E----5-------------5---------------|

    Bird of prey  bird of prey


e----------------------------------|
B----------------------------------|
G----------------------------------|
D-----7---0-3-------7---0-3--------|
A----------------------------------|
E----------------------------------|

     Fly-in high    fly-in high

e----------------------------------|
B----------------------------------|
G----------------------------------|
D----7---0--3-3-30-----------------|
A----------------------------------|
E----------------------------------|

    take me on your flight
Tap to rate this tab
# A B C D E F G H I J K L M N O P Q R S T U V W X Y Z