Song name
# A B C D E F G H I J K L M N O P Q R S T U V W X Y Z

Doors - Spy tab

Help us improve GuitareTab! Take a short survey!
Alright most of the tabs for this song wer'nt very complete so here is an update. I 
know every part yet but I do know more than what's here.

Standard Tuning

e-----------12-------------|
b--12----------------------|
g-----12---------------12--|   This is the main riff
d--------14----(14)-14-----|
a--------------------------|
E--------------------------|

after about 4 or 5 times of playing that he throws in this

e-----------------------------------------------------------|
b-----------------------------------------------------------|
g---------9----11b13b11p9-----9-11-9------------11b13-11-9--|   Then it goes
d------11---11------------11-----------------11-------------|   back to the
a-----------------------------------------------------------|   main riff
E-----------------------------------------------------------|

Chorus is three chords. power chords or basic chords both work

    G    D   E
e-------------------|
b-------------------|
g--------7---9------| There is also a little lick played by what I think is
d---5----7---9------| the abss but it could be guitar.
a---5----5---7------|
E---3---------------|


I haven't figured out the outro/solo type thing

End on

e----------------|
b----------------|
g------12----14--|
d---14----14-----|
a----------------|
E----------------|

There you go. Great song, it's a shame theres few tabs for it.

Tabbed by Joe
Related for Spy tab