Song name
# A B C D E F G H I J K L M N O P Q R S T U V W X Y Z

Doors - Cars Hiss By My Window tab

The Doors
Cars Hiss by my Window, off LA Woman
Standard Tuning, transcribed for one guitar. don't use a pick
Tabbed by: the amazing Steve Dubuque

Intro
---------|
---------|
---------|
---0h1h2-|
-2-------|
---------|


E7
----------------------------------------------------------|
--------2----0----------------------2----0----------------|
--------2----0h1--------------------2----0h1--------------|
--------2----0-------0h1h2----------2----0---------0h1h2--|
--------2h4--------2----------------2h4----------2--------|
--0--0-----------0-0----------0--0------------0--0--------|

A7
------------0------------------------------0------------------|
------6/7---2------------------------6/7---2------------------|
------5/6---0-------0h1h2------------5/6---0-------0h1h2------|
------6/7---------2------------------6/7---------2------------|
-0--0----------0--0-------------0--0----------0--0------------|
--------------------------------------------------------------|

E7 (short)
--------------------------------------------------x---------|
--------2----0----------------------2----0--------x---------|
--------2----0h1--------------------2----0h1------x---------|
--------2----0-------0h1h2----------2----0--------x---------|
--------2h4--------2----------------2h4-----------x---------|
--0--0-----------0-0----------0--0------------0-0-x---------|
					           (kinda palm-mute/slap)

MCC (Major chord change...B7, A7, E7, (A), E7, B7)

 B7                        A7
-2-4p2p0-------------------3-------0------------x--------------|
-2-------2--4p3p2---------------------3----2h3--x--------------|
-2----------------3-2-------------------0-------x--2h4p2p0-----|
-x------------------------------2/4--------2----x-----------/6-|
------------------------------0--------------------------------|
---------------------------------------------------------------|

 E7           (A)            E7         B7
---------------------------------------------------------------|
----------------------------------------0---0------------------|
----------------------------------------2---0------------------|
--0h2-0h2-0h2--0----0--------2----------1---0h1h2--------------|
------------------2---0-----------0h1h2---2--------------------|
-0----------------------3--0----0------------------------------|


Intro
E7 x2

    A7
The cars hiss by my window
Like the waves down on the beach

E7

    A7
The cars hiss by my window
Like the waves down on the beach

E7 (short)

MCC
I got this girl beside me
But she's out of reach


E7

 E7
Headlights thru my window
Shining on the wall

E7 (w/fill)
-------------------------------------3~--0------0-------------------|
--------2----0------------------------------3b----0-----------------|
--------2----0h1------------------------------------2/4p2p0---------|
--------2----0-------0h1h2------------------0---------------2-------|
--------2h4--------2-------------2/4--------------------------------|
--0--0-----------0-0----------0--0------------------0---------------|

A7
Headlights thru my window
Shining on the wall

MCC
Can't hear my baby
Tho' I call and call

Solo
--------3~--0------0--------------------------|
---------------3b----0------------------------|
-----------------------2/4p2p0----------------|
---------------0---------------2--------------|
----2/4---------------------------------------|
-0--0------------------0----------------------|     <- that part 3 times, then


----------------------------------------|
------/3--3--3--3--3--3--3--3--3--------|
------/4--4--4--4--4--4--4--4--4--------|
----------------------------------------|
----------------------------------------|
-0--0------------------0----------------|


------4p2p0----0-----------------------------|
------------2----x---------------------------|
-----------------x---------------------------|
-----------------x--2h4--2-------------------|
--0--0---------------------------------------|
---------------------------------------------|

you can figure out the rest

The cars hiss by my window
Like the waves down on the beach
The cars hiss by my window
Like the waves down on the beach
I got this girl beside me
But she's out of reach

Headlights thru my window
Shining on the wall
Headlights thru my window
Shining on the wall
Can't hear my baby
Tho' I call and call

Window started tremblin'
With those sonic booms
Window started to tremble
With those sonic boom, boom
A cold girl'll kill you
In a darkened room
Tap to rate this tab
# A B C D E F G H I J K L M N O P Q R S T U V W X Y Z