Song name
# A B C D E F G H I J K L M N O P Q R S T U V W X Y Z

Doors - Light My Fire tab

Help us improve GuitareTab! Take a short survey!
Artist; The Doors
Song: Light My Fire
Album: The Doors (1967)
Tunning: Standard


Gtr I (E A D G B E) - 'Organ'
Gtr II (E A D G B E) - 'Guitar'



 


  Gtr I
   E  S  S  E  E  E  E  E  E    E  S  S  E  E  S  S  S  S  E  E
|----------------------------|-------------13-------------------|
|-12-------12-15-13-12-------|----------13----15p13-------------|
|----12-14-------------14-12-|-14----14-------------15-12h13p12-|
|----------------------------|----15----------------------------|
|----------------------------|----------------------------------|
|----------------------------|----------------------------------|


   E  S  S  E  E  S  S  S  S  E  E
|-----------------------------------|
|-------------13--------------------|
|-13-12h13-15----15-13-12-----------|
|-------------------------15-13-15--|
|-----------------------------------|
|-----------------------------------|


   E  E  E  E  E  E  E  E    E  E  E  E  E  E  E  E
|-------------12-------12-|----------------12----12-||
|-------14----------14----|-------14----14----------||
|-14-14----14----14-------|-14-14----14-------14----||
|-------------------------|-------------------------||
|-------------------------|-------------------------||
|-------------------------|-------------------------||



 

  Gtr II
  E S S E E +E  E Q    Q  Q  +E  E E E
|-------5-7-(7)------|----2--(2)--------|
|-----5---------5----|-----------2------|
|---5-------------5--|---------------2--|
|--------------------|-4-----------4----|
|--------------------|------------------|
|--------------------|------------------|


  E E Q  +E  E E E   E E E E +E  E E E   E E E E +E  Q  E
|-----0--(0)-------|-------2-(2)-----2-|-------7-(7)------|
|---1------------0-|---------------2---|-----5-------0--2-|
|-2----------2-2---|-----2-------2-----|---5--------------|
|------------------|---4---------------|------------------|
|------------------|-------------------|-0----------------|
|------------------|-------------------|------------------|


  +E  E E E +E  E E E   E E E E E Q  a E
|---------2-(2)-------|-----0------------|
|-(2)-----------2-----|-----------0--0h2-|
|-------2-----------2-|---2-----2--------|
|-----4-----------4---|-------2----------|
|---------------------|-0----------------|
|---------------------|------------------|



  +E  E E E E E E E    E E E E  E E E E
|---------2---------||-----3--------5----|
|-(2)---------2-----||-------3--------5--|
|-------2-------2---||---4--------6------|
|-----4-----4-----4-||-5-----------------|
|-------------------||-------------------|
|-------------------||---------/5--------|


  E E E E +E  E E E   E E E E E Q  E   Q  E a E E E E a E    E  E E E E E Q
|-------3-(3)p2-----|---7---7---5----|----------7---------|--3--3-3----------|
|-----3-3-(3)-3-----|-----8--------8-|-7------------7-----|--3--3-3-0-7-7-7--|
|-2-2-2-2-(2)---2---|---------6------|-7--7-------4-------|--4--4-4-0-7-7-7--|
|-0-0-----------0-8s|=9--------------|-7------------------|-----------7-7-7--|
|-------------------|----------------|-5----5s6-------6s5-|-(5)---5---5-5-5--|
|-------------------|----------------|--------------------|------------------|


  E E E E Q  E E   +E  E E E E Q.      E E E E +E  E E E   +E  E E E E E E E
|---0-----0------|-----0---0--------||-------7-(7)-------|-------2-----------|
|---0-----0----3-|-(3)-----0---3----||-----5-------5---2-|-(2)---------2-----|
|-------1----1-1-|-(1)---1-----1----||---5-----------0---|-----------2-----2-|
|-----2------2---|-------------2----||-------------------|-----4---4-----4---|
|----------------|------------------||-------------------|-------------------|
|-0--------------|-----------0------||-------------------|-------------------|


  E E Q  +E  E E S S   +E  E E E +E  E E E
|-----0--(0)---------|---------2-(2)-------|
|------------0---0h2-|-(2)-----------2-----|
|---2----------------|-------2-----------2-|
|--------------2-----|-----4-----------4---|
|-0------------------|---------------------|
|--------------------|---------------------|


  E E Q  +E  Q  E   E E E E +E  E E E
|-----0--(0)------|-------2-(2)--------|
|------------0--0h|=2-----------2------|
|---2-------------|-----2-----------2--|
|-----------------|---4-----------4----|
|-0---------------|--------------------|
|-----------------|--------------------|


                                     
  E E Q  +E  E E E   E E E E E E E E    e E E E E E E E
|-----0--(0)-------|-------2---------||-----3-----5-----|
|--------------0-3s|=2---------2-----||---3-3-3-5-5-5---|
|---2--------2-----|-----2---------2-||---4-4-4-6-6-6-0-|
|------------------|---4-----4---4---||---5---5-7---7---|
|-0----------------|-----------------||-----------------|
|------------------|-----------------||-3-------5-------|


  E E E E +E  E E E   E E E E E E E E   E E Q   E Q  E
|-2-----3-(3)-2-----|-3-3-3-3---------|-2-2-2-----7----|
|-3---3-3-(3)-3---3-|-3-3-3-3---------|-3-3-3----------|
|-2-2-2-2-(2)-2-2-2-|-4-4-4-4---2---0-|-2-2-2--/8------|
|-0-----------0-0---|-5-5-5-5-----2---|-0-0-0--------9-|
|-------------------|---------0-------|----------------|
|-------------------|-----------------|----------------|


                                                       Organ Solo
  E E E E E E E E   E E E E E E E E   +Q.   E E E Q     W
|-3-3-3-----------|---0-----------0-|-(0)------------||------|
|-3-3-----7-7-7---|---0-----------0-|-(0)------------||------|
|-4-4---4-7-7-7-0h|=1-----1-------1-|-(1)---------1--||------|
|-5-5-----7-7-7---|-----2---2-2-2---|-------2---2----||------|
|---------5-5-5---|---------2---2---|---------2------||------|
|-----------------|-------------0---|----------------||------|


                               Guitar Solo
                Am    Bm        Am      Bm            Am       Bm
                Gtr I
  W             Q  Q  E Q  E    Q   Q   E   Q     E    Q   Q   E   Q     E
                |  |  | |  |    |   |   |   |     |    |   |   |   |     |
                /  /  / /  /    /   /   /   /     /    /   /   /   /     /

  Gtr II        Gtr II
  Wx68          H     E Q  E    Q.    E S S S S E E   +Q.    E S S S S E E
|-------------|---------3--5-||-7-----8-7h8p7p5---5-|-(5)------7h8p7p5---5-|
|-------------|--------------||-----------------8---|--------8---------8---|
|-------------|--------------||---------------------|----------------------|
|-------------|--------------||---------------------|----------------------|
|-------------|--------------||---------------------|----------------------|
|-------------|--------------||---------------------|----------------------|


  Am       Bm            Am      Bm
   Q   Q   E   Q     E    Q   Q   E  Q   E
   |   |   |   |     |    |   |   |  |   |
   /   /   /   /     /    /   /   /  /   /

  +Q.    E S S S S E E   +H      +E  E E E
|-(5)p===0-2h3p2p0---0-|-(0)-----(0)-5---5-|
|------------------3-1-|-(1)-----(1)---8---|
|----------------------|-------------------|
|----------------------|-------------------|
|----------------------|-------------------|
|----------------------|-------------------|


  Am    Bm         Am            Bm
  Q  Q   E  Q  E    Q        Q   E Q  E
  |  |   |  |  |    |        |   | |  |
  /  /   /  /  /    /        /   / /  /

                       |-3-|
  H     +E  Q  E   +E  S S S H.
|-7-----(7)-8--7-|-(7)h8-7-5------------|
|----------------|-----------8----------|
|----------------|----------------------|
|----------------|----------------------|
|----------------|----------------------|
|----------------|----------------------|


  Am          Bm       Am         Bm
  Q       Q   E Q  E   Q       Q  E Q   E
  |       |   | |  |   |       |  | |   |
  /       /   / /  /   /       /  / /   /

  S S S S H.           S S S S H      Q
|--------------------|--------------------|
|-7h8p7p5------------|--------------------|
|---------7----------|-7h8p7p5------------|
|--------------------|---------7----------|
|--------------------|--------------------|
|--------------------|--------------------|


  Am                  Bm       Am                  Bm
  Q       Q           E Q  E   Q       Q           E Q  E
  |       |           | |  |   |       |           | |  |
  /       /           / /  /   /       /           / /  /

    |-3-| |-3-| |-3-|            |-3-| |-3-| |-3-|
  E S S S S S S S S S H        E S S S S S S S S S H
|---------------5h6----------|---------------5h6-------------|
|---------5h6h7-----7--------|---------5h6h7-----7-----------|
|---5h6h7--------------------|---5h6h7-----------------------|
|----------------------------|-------------------------------|
|----------------------------|-------------------------------|
|----------------------------|-------------------------------|


  Am            Bm            Am          Bm
  Q         Q   E   Q   E     Q   Q       E Q   E
  |         |   |   |   |     |   |       | |   |
  /         /   /   /   /     /   /       / /   /

  |-3-|                             |-3-|
  S S S S S E E S S E E S S   E E E S S S E E E E
|-------5---5-7-8p5---5-----|-------------------5-|
|---------7---------7---7p8-|---5-----------------|
|-5h6h7---------------------|-7---7h8p7p5---5-7---|
|---------------------------|-------------7-------|
|---------------------------|---------------------|
|---------------------------|---------------------|


  Am          Bm          Am       Bm
   Q    Q      E  Q   E    Q    Q  E Q  E
   |    |      |  |   |    |    |  | |  |
   /    /      /  /   /    /    /  / /  /

  +E  Q    E  +E  E E E   +E  E Q  H
|-(5)---------------5---|-------------------|
|-----7p==(5)-(5)-------|-------------------|
|-----------------7-----|-----5h7-----------|
|---------------------7-|-(7)---------------|
|-----------------------|-------------------|
|-----------------------|-------------------|


  Am        Bm         Am        Bm
  Q   Q     E Q    E   Q   Q     E Q   E
  |   |     | |    |   |   |     | |   |
  /   /     / /    /   /   /     / /   /

        |3|
  E E E E S E E  Q     E E E S S E e Q
|---8-5-8-5---8/-----|---8-5-8-5---8-----|
|---8-5-8-5---8/-----|---8-5-8-5---8-----|
|--------------------|-------------------|
|--------------------|-------------------|
|--------------------|-------------------|
|--------------------|-------------------|


  Am        Bm         Am        Bm
  Q   Q     E Q    E   Q   Q     E Q   E
  |   |     | |    |   |   |     | |   |
  /   /     / /    /   /   /     / /   /

  E E E S S E E  Q     E E E S S E E E E
|---8-5-8-5---8/-----|---8-5-8-5---5s3-3-|
|---8-5-8-5---8/-----|---8-5-8-5---5s3-3-|
|--------------------|-------------------|
|--------------------|-------------------|
|--------------------|-------------------|
|--------------------|-------------------|


  Am      Bm        Am      Bm         Am            Bm
  Q   Q   E Q   E    Q   Q   E  Q  E    Q    Q       E Q     E
  |   |   | |   |    |   |   |  |  |    |    |       | |     |
  /   /   / /   /    /   /   /  /  /    /    /       / /     /

                                               |-3-|
  E E E E E E E E    H      +E  Q  E   +E  Q   S S S E E S S S S
|-3s5-5s3-3s5-5---|--5------(5)-0--1-|-(1)-3---1h3p1p0-----------|
|-3s5-5s3-3s5---5-|-(5)-----(5)------|-----------------3-1h3p1p0-|
|-----------------|------------------|---------------------------|
|-----------------|------------------|---------------------------|
|-----------------|------------------|---------------------------|
|-----------------|------------------|---------------------------|


  Am    Bm            Am            Bm              Am     Bm
  Q  Q  E Q       E   Q       Q     E   Q     E     Q   Q  E Q   E
  |  |  | |       |   |       |     |   |     |     |   |  | |   |
  /  /  / /       /   /       /     /   /     /     /   /  / /   /

          |-3-|
  H     E S S S Q     S S S S E S S S S E S S S S   E E Q  E E Q
|-------------------|-----------------------------|----------5-7----|
|-------------------|-----------------------------|-----------------|
|-2-----4-4p2p0-----|-2h4p2p0---2h4p2p0---2h4p2p0-|-----------------|
|---------------2---|---------2---------2---------|-2---------------|
|-------------------|-----------------------------|-----------------|
|-------------------|-----------------------------|-----------------|


  Am       Bm         Am        Bm
   Q    Q   E  Q  E    Q    Q   E Q  E
   |    |   |  |  |    |    |   | |  |
   /    /   /  /  /    /    /   / /  /

  +E  E Q  +E  Q  E   +E  E E E E Q  S S
|-(7)-5-------------|-------------5--5h7h|
|-------7--(7)-5----|---------5-7--------|
|-----------------7-|-(7)-5-7------------|
|-------------------|--------------------|
|-------------------|--------------------|
|-------------------|--------------------|


  Am            Bm             Am           Bm
   Q       Q     E  Q      E     Q     Q    E Q    E
   |       |     |  |      |     |     |    | |    |
   /       /     /  /      /     /     /    / /    /

  +E  a Q.    a  Q.     a  E    +Q    +Q    Q   E  E
|-(7)-7s8-----8s10-----10s12-|-(12)--(12)--------12-|
|----------------------------|-----------------------|
|----------------------------|-----------------------|
|----------------------------|-----------------------|
|----------------------------|-----------------------|
|----------------------------|-----------------------|


  Am           Bm
    Q     Q      E   Q            E
    |     |      |   |            |
    /     /      /   /            /

                     |--3--|
   +E   Q    E  +E   S  S  S  E   E
|-(12)-13---15-(15)-13h15p13-12-(10)-|
|------------------------------------|
|------------------------------------|
|------------------------------------|
|------------------------------------|
|------------------------------------|


  Am          Bm          Am             Bm
   Q   Q      E  Q    E   Q           Q  E    Q      E
   |   |      |  |    |   |           |  |    |      |
   /   /      /  /    /   /           /  /    /      /

                               |-3-|
   E Q    S S E  E E  E   S S  S S S  Q  S  S S S  Q
|-10-8---10p8s7---------|-7h8h10p8p7-----8h10p8p7-------|
|---------------10-8-10-|------------10-----------10----|
|-----------------------|-------------------------------|
|-----------------------|-------------------------------|
|-----------------------|-------------------------------|
|-----------------------|-------------------------------|


  Am         Bm
   Q    Q     E     Q       E
   |    |     |     |       |
   /    /     /     /       /

   E  Q    E  S  S  S  S  Q
|-12-13---15-13h15p13p12------|
|------------------------15---|
|-----------------------------|
|-----------------------------|
|-----------------------------|
|-----------------------------|


  Am       Bm              Am         Bm
  Q   Q    E    Q      E    Q    Q      E   Q        E
  |   |    |    |      |    |    |      |   |        |
  /   /    /    /      /    /    /      /   /        /

  E Q    E S  S S S  Q      E  Q    E  +E   S  S  E  E
|-7-8---10-8h10p8p7------|-12-13---15-(15)-15p13p12-----|
|-------------------10---|--------------------------15--|
|------------------------|------------------------------|
|------------------------|------------------------------|
|------------------------|------------------------------|
|------------------------|------------------------------|


  Am                Bm          Am        Bm              Am        Bm
   Q           Q     E Q    E     Q  Q      E   Q     E    Q  Q     E Q  E
   |           |     | |    |     |  |      |   |     |    |  |     | |  |
   /           /     / /    /     /  /      /   /     /    /  /     / /  /

   S  S  S  S  E  E  Q    Q       Q  E  E  +Q       Q      Q  E  E  H
|------------------------12---|-/17----17-(17)---/16s==|=17----17--------|
|-13h15p13p12-----------------|-------------------------|------------------|
|-------------14-12-14--------|-------------------------|------------------|
|-----------------------------|-------------------------|------------------|
|-----------------------------|-------------------------|------------------|
|-----------------------------|-------------------------|------------------|


  Am                  Bm
  Q        Q           E     Q           E
  |        |           |     |           |
  /        /           /     /           /

  E  S  S  S  S  S  S  S  S  S  S  S  S  S  S
|---17h19-17h19-17----------17----------17----|
|------------------19-17h19----------------19-|
|------------------------------19-17-19-------|
|---------------------------------------------|
|---------------------------------------------|
|---------------------------------------------|


  Am                     Bm            Am                      Bm
   Q            Q         E  Q     E    Q           Q           E     Q   E
   |            |         |  |     |    |           |           |     |   |
   /            /         /  /     /    /           /           /     /   /

                             PM
   S  S  S  S   S   S  E  E  E  E  E    S  S  S  S  S  S  S  S  S  S  Q   E
|-------17h19-(21)p17----17----17----|-------------17h19-17----------17--17-|
|-17h19---------------19-------------|-------17h19----------19-17h19--------|
|---------------------------17----19-|-17h19--------------------------------|
|------------------------------------|--------------------------------------|
|------------------------------------|--------------------------------------|
|------------------------------------|--------------------------------------|


  Am                Bm
   Q        Q        E    Q                 E
   |        |        |    |                 |
   /        /        /    /                 /

   S  S  E  E  S  S  s  S S   S   E        +E
|-------17----17h19-21p19----------------------|
|----------17---------------(19)-19b19.5==(19)r|
|-17h19----------------------------------------|
|----------------------------------------------|
|----------------------------------------------|
|----------------------------------------------|


  Am         Bm             Am          Bm         Am      Bm
    Q   Q     E Q       E   Q   Q        E  Q  E    Q   Q  E Q   E
    |   |     | |       |   |   |        |  |  |    |   |  | |   |
    /   /     / /       /   /   /        /  /  /    /   /  / /   /

   +Q.     E  Q    +Q       E Q   a E   +Q.    E   +H.         E E
|---------17--------------|---5----------------5-|-(5)-----------5--|
|-(19)-------19---(19)---|-------7--------------|-------------8----|
|-------------------------|---------7b9r(7)------|------------------|
|-------------------------|---------9------------|------------------|
|-------------------------|----------------------|------------------|
|-------------------------|----------------------|------------------|


  Am        Bm            Am       Bm         Am          Bm
   Q    Q   E   Q     E    Q   Q    E  Q  E    Q      Q   E Q       E
   |    |   |   |     |    |   |    |  |  |    |      |   | |       |
   /    /   /   /     /    /   /    /  /  /    /      /   / /       /

                                                            |-3-|
  +E  Q   E S S S S E E   +Q.    E +E  Q  E   +E. T T E E E S S S E E
|-(5)-7---8-7h8p7p5---5-|-(5)----------5--7-|-(7)h8p7p5----------------|
|-------------------8-5-|-(5)----8-(8)------|-------------7h8p7p5---5--|
|-----------------------|-------------------|---------------------7p5--|
|-----------------------|-------------------|--------------------------|
|-----------------------|-------------------|--------------------------|
|-----------------------|-------------------|--------------------------|


  Am      Bm          Am      Bm
   Q   Q   E  Q   E   Q   Q    E  Q     E
   |   |   |  |   |   |   |    |  |     |
   /   /   /  /   /   /   /    /  /     /

  +H      +E  E E E   Q.    E +E  S S E E
|-------------5---5-|-7-----8-(8)-7h8-----|
|-(5)-----(5)---8---|-------------------8-|
|-(5)-----(5)-------|---------------------|
|-------------------|---------------------|
|-------------------|---------------------|
|-------------------|---------------------|


  Am       Bm            Am       Bm
   Q   Q   E   Q     E    Q   Q   E Q   E
   |   |   |   |     |    |   |   | |   |
   /   /   /   /     /    /   /   / /   /

  +Q.    E S S S S E E   +Q.    E E E E E
|--------5-------------|--------5----------|
|-(8)------7h8p7p5---5-|-(5)------7-----5--|
|------------------7-5-|-(5)--------7-7p5--|
|----------------------|-------------------|
|----------------------|-------------------|
|----------------------|-------------------|


  Am      Bm          Am        Bm
   Q   Q   E  Q   E    Q     Q   E  Q   E
   |   |   |  |   |    |     |   |  |   |
   /   /   /  /   /    /     /   /  /   /

  +H      +E  E E E   +E  Q.    +E  Q.
|-------------5---5-|-(5)-7-----(7)-8-----|
|-(5)-----(5)---8---|---------------------|
|-(5)-----(5)-------|---------------------|
|-------------------|---------------------|
|-------------------|---------------------|
|-------------------|---------------------|


  Am         Bm          Am       Bm
  Q       Q   E  Q   E   Q     Q   E  Q   E
  |       |   |  |   |   |     |   |  |   |
  /       /   /  /   /   /     /   /  /   /

  S S S S Q  +E  Q.      E S S Q  +E  Q.
|-7h8p7p5--------5-----|--------------5------|
|---------7--(7)-------|-8p7p5---------------|
|----------------------|-------7--(7)--------|
|----------------------|---------------------|
|----------------------|---------------------|
|----------------------|---------------------|


  Am       Bm          Am         Bm
  Q     Q   E  Q   E   Q       Q  E Q   E
  |     |   |  |   |   |       |  | |   |
  /     /   /  /   /   /       /  / /   /

  E S S Q  +E  Q.      S S S S Q  E E E E
|--------------5-----|----------------5-7-|
|-8p7p5--------------|-7h8p7p5----5-7-----|
|-------7--(7)-------|---------7--5-------|
|--------------------|--------------------|
|--------------------|--------------------|
|--------------------|--------------------|


  Am        Bm          Am      Bm
   Q    Q   E Q     E   Q   Q   E Q     E
   |    |   | |     |   |   |   | |     |
   /    /   / /     /   /   /   / /     /

            |--3--|     |--3--| |--3--|
  +E  Q   E Q   Q Q     Q Q   Q Q   Q Q
|-(7)-5-----5-----5---|-------7-------5----|
|---------8-----7-----|---5---7-5---8------|
|---------------------|-7-----7------------|
|---------------------|--------------------|
|---------------------|--------------------|
|---------------------|--------------------|


  Am      Bm         Am            Bm
  Q   Q    E  Q  E   Q       Q     E    Q    E
  |   |    |  |  |   |       |     |    |    |
  /   /    /  /  /   /       /     /    /    /

  |--3--|            |----3----|
  Q Q   Q +H         Q   Q     Q   E   +E  E E
|---5--------------|---------------------------|
|-7----------------|---------------------------|
|-------7-(7)------|-7b9-7b9---7b9-7b9r(7)-5---|
|------------------|-------------------------7-|
|------------------|---------------------------|
|------------------|---------------------------|


  Am            Bm            Am            Bm
  Q       Q     E    Q    E   Q       Q     E    Q     E
  |       |     |    |    |   |       |     |    |     |
  /       /     /    /    /   /       /     /    /     /

  |----3----|                 |----3----|
  Q   Q     Q   E   +E  E E   Q   Q     Q   E   +E  E  E
|---------------------------|-----------------------------|
|---------------------------|-----------------------------|
|-7b9-7b9---7b9-7b9r(7)-5---|-7b9-7b9---7b9-7b9r(7)-5-----|
|-------------------------7-|-------------------------(0)-|
|---------------------------|-----------------------------|
|---------------------------|-----------------------------|


  Am               Bm             Am               Bm
  Q         Q      E     Q    E   Q         Q      E     Q    E
  |         |      |     |    |   |         |      |     |    |
  /         /      /     /    /   /         /      /     /    /

  |-----3-----|                   |-----3-----|
  Q    Q      Q    E    +E  Q     Q    Q      Q    E    +E  Q
|-------------------------------|-------------------------------|
|-8b10-8b10---8b10-8b10r(8)-5---|-8b10-8b10---8b10-8b10r(8)-5---|
|-------------------------------|-------------------------------|
|-------------------------------|-------------------------------|
|-------------------------------|-------------------------------|
|-------------------------------|-------------------------------|


  Am            Bm            Am      Bm
  Q       Q     E    Q    E   Q   Q   E Q     E
  |       |     |    |    |   |   |   | |     |
  /       /     /    /    /   /   /   / /     /

  |----3----|                 |--3--| |--3--|
  Q   Q     Q   E   +E  E E   Q Q   Q Q   Q Q
|---------------------------|--------------------|
|-7b9-7b9---7b9-7b9r(7)-----|-------5-7---5------|
|-----------------------5---|-5-7-----------7----|
|-------------------------7-|--------------------|
|---------------------------|--------------------|
|---------------------------|--------------------|


  Am      Bm          Am      Bm          Am      Bm
  Q   Q   E Q     E   Q   Q   E Q     E   Q   Q   E Q      E
  |   |   | |     |   |   |   | |     |   |   |   | |      |
  /   /   / /     /   /   /   / /     /   /   /   / /      /

  |--3--| |--3--|     |--3--| |--3--|     |--3--| |--3--|
  Q Q   Q Q   Q Q     Q Q   Q Q   Q Q     Q Q   Q Q   Q Q
|-------------------|---------------5---|-8-7---5------------||
|-------------------|---5---7-8---7-----|---------8---7-5---||
|-7-5---7-5---7-5---|-7-----------------|--------------------||
|-------------------|-------------------|--------------------||
|-------------------|-------------------|--------------------||
|-------------------|-------------------|--------------------||


  Gtr I
   E  S  S  E  E  E  E  E  E    E  S  S  E   E  S  S  S  S  E  E
|----------------------------|--------------13-------------------|
|-12-------12-15-13-12-------|----------13-----15p13-------------|
|----12-14-------------14-12-|-14----14--------------15-12h13p12-|
|----------------------------|----15-----------------------------|
|----------------------------|-----------------------------------|
|----------------------------|-----------------------------------|
|
| Gtr II
|  Q        E  E  E  E  Q       Q        Q      Q           E  E
|--3--------3--------2-------|--1--------1/-----6----------------|
|--3--------3--------3--3----|--1--------1/-----6-----------6----|
|-----------------2-----2----|--2--------2/-----7----------------|
|--------------0--------0----|--3--------3/-----8--------------8-|
|----------------------------|-----------------------------------|
|----------------------------|-----------------------------------|


    E   S   S  E  E  S  S  S  S  E  E
|-------------------------------------|
|----------13-------13----------------|
|--13--15-----15-13----15-13-12-------|
|-------------------------------15-13-|
|-------------------------------------|
|-------------------------------------|
|
|   E   Q         E  Q           Q
|------11------------4-----------4----|
|------11------------4----------------|
|-/12-(12)s=======5-------------------|
|-/13-(13)----------------------------|
|-------------------------------------|
|-------------------------------------|


   E  E  E  E  E   E  E  E    E  E  E  E  E  E  E  E
|--------------------------|----------17-------17----||
|-------14----14--17----14-|----14-17----14-17----17-||
|-14-14----14--------14----|-14----------------------||
|--------------------------|-------------------------||
|--------------------------|-------------------------||
|--------------------------|-------------------------||
|
|  E  Q     E +E   E  E  E    E  E  Q     H
|--5-----------------------|-------------------------||
|--5---------------5-----5-|--------5-----5----------||
|--6--------6-(6)-----6----|-----6--6-----6----------||
|--7--7--------------------|-----7--7-----7----------||
|--------------------------|--7-----------7----------||
|--------------------------|--------------5----------||


 3rd Verse
  Gtr II
  Q  E  E  +E  Q  E    Q   E E E E E E   a Q  Q  Q.   S S
|----5h=7--(7)------|------2-----------|------0--0----0h2-|
|----5-(5)-(5)-5--2-|-(2)------2-2---2-|------------------|
|-------------------|--2---------------|------------------|
|-------------------|--4-----4-----4---|-0h2--------------|
|-------------------|--4---------------|------------------|
|-------------------|------------------|------------------|


  +E  E E E +E  Q.     Q  E E +E  Q  E   E E E E +E  E E E
|-(2)-----2-(2)------|----0------------|-------2-(2)-------|
|---------------2----|------------0----|-------------2-----|
|-------2------------|---------------0-|-----2-----------2-|
|-----4--------------|------2-(2)------|---4-----------4---|
|--------------------|-----------------|-------------------|
|--------------------|-----------------|-------------------|


                                       Chorus
  Q  Q  +E  Q  E   E E E E +E  E E E    E E E E E E E E
|----0--(0)------|-------2-(2)-------||-----3-3---5-5-5-|
|-----------0----|-------------2-----||-----3-3---5-5-5-|
|--------------0-|-----2-----------2-||---4-------6-6-6-|
|----------------|---4-----------4---||-5-------7-------|
|-0--------------|-------------------||-----------------|
|----------------|-------------------||-----------------|


                                               PM---|
  Q.   E +E  Q  E   E E E E  E E E E   E E Q   E  E  q
|-2----3-(3)-2----|-3---3------------|-----------11-14--|
|-3----3-(3)-3----|-3-3-3---/2-------|-3---3--12--------|
|-2----------2--3-|-4-----4----2-----|-2-2--------------|
|-0---------------|--------------2-4-|------------------|
|-----------------|------------------|------------------|
|-----------------|------------------|------------------|


                                                         4th Verse
  E S S E E E E Q    E E E E Q  E E   +E  E E E E Q.      Q  Q  E Q  E
|-3---3-----2-2-2--|---0-----0------|-----0---0--------||---------------|
|-3---3-----3-3-3--|---0-----0----3-|-(3)-----0---3----||----5----5-----|
|-4-4-------2-2-2--|-------1----1-1-|-(1)---1-----1----||----5----5-----|
|-5-----5-5-0-0-0--|-----2------2---|-------------2----||----5----5--7--|
|------------------|----------------|------------------||---------------|
|------------------|-0--------------|-----------0------||---------------|


  E E E E E Q.     Q  q  E Q.     Q  q  E E  Q     Q  E E E Q  E
|----------------|--------------|----------------|---------------|
|-----------2----|----5----5----|----2----2-(2)--|----5---5-5----|
|-----------2----|----5----5----|----2----2-(2)--|----5---5-5----|
|-----------4----|----5----5----|----4----4-(4)--|----5-7-5-5----|
|----------------|-------0------|----------------|---------------|
|---0-2-0--------|--------------|-------2----2---|---------------|


                                                Chorus
  Q  q  E Q  E   Q  q  E Q  E   Q  e E E Q.      E E E E E Q  E
|--------------|--------------|---------------||-----3-3---5----|
|----2--2-2----|----5----5--5-|----2-----2----||---3-3-3---5--0-|
|----2--2-2----|----5----5--5-|----2-----2----||---4-------6--0-|
|----4--4-4----|----5----5--5-|----4-----4----||-5-------7------|
|--------------|-------0------|---------------||----------------|
|--------------|--------------|------0-2------||----------------|


  E E E E +E  E E E   E E E E  E  E  E E   E E E E +E  E E E   Q  Q  Q  Q
|-2-2-2-3-(3)-2-----|-7-7-7-7--9--9--9---|-2-2-2-3-(3)-2-----|-------0--0--|
|-3-3-3-3-(3)-3---0-|-8-8-8-8-10-10-10-0-|-3-3-3-3-(3)-3---0-|-1--1--1--1--|
|-2---2-2-(2)-2-2-0-|-7-7-7-7--9--9--9-0-|-2---2-2-(2)-2-2-0-|-2--2--0--0--|
|-0---0-------0-0---|-9-9-9-9-11-11-11---|-0---0-------0-0---|-3--3--2--2--|
|-------------------|--------------------|-------------------|-3--3--3--3--|
|-------------------|--------------------|-------------------|-1--1--------|


  E E E E +E  E E E   Q  Q  Q  Q    E E E E +E  E E E   Q  Q  Q  E E
|-2-2-2-3-(3)-2-----|-------0--0--|-2-2-2-3-(3)-2-----|-------0--0---|
|-3-3-3-3-(3)-3---0-|-1--1--1--1--|-3-3-3-3-(3)-3---0-|-1--1--1--1---|
|-2---2-2-(2)-2-2-0-|-2--2--0--0--|-2---2-2-(2)-2-2-0-|-2--2--0--0-0-|
|-0---0-0-----0-0---|-3--3--2--2--|-0---0-0-----0-0---|-3--3--2--2-0-|
|-------------------|-3--3--3--3--|-------------------|-3--3--3--3---|
|-------------------|-1--1--------|-------------------|-1--1---------|


                                              3/4
  E E E E +E  E E E   Q  Q  Q  Q    W          +H.
|-2-2-2-3-(3)-2-----|-------0--0--|-2--------|-(2)----||
|-3-3-3-3-(3)-3---0-|-1--1--1--1--|-3--------|-(3)----||
|-2---2-2-(2)-2-2-0-|-2--2--0--0--|-2--------|-(2)----||
|-0---0-------0-0---|-3--3--2--2--|-0--------|-(0)----||
|-------------------|-3--3--3--3--|----------|--------||
|-------------------|-1--1--------|----------|--------||


 4/4
  Gtr I
   E  S  S  E  E  E   E  E  E    E  S  S  E  E  S  S  S  S  E  E
|-----------------------------|-------------13-------------------|
|-12-------12-15-13--12-------|----------13----15p13-------------|
|----12-14--------------14-12-|-14----14-------------15-12h13p12-|
|-----------------------------|----15----------------------------|
|-----------------------------|----------------------------------|
|-----------------------------|----------------------------------|
|
| Gtr II
|  Q        E  E  Q.        E    Q        Q     Q           E  E
|-----------------2---------0-|--1--------1-----6----------------|
|-----------------3---------0-|--1--------1-----6----------------|
|-----------4--4--2-----------|--2--------2-----7----------------|
|--5--------5--5--0-----------|--3--------3-----8-----------8s13-|
|--5--------------------------|--3--------3-----8-----------8s13-|
|--3--------------------------|--1--------1-----6-----------6s11-|


   E  S  S  E   E  S  S  S  S  E  E    W            +Q   Q  H
|-----------------------------------|------------|---------------*|
|-------13--------------------------|-14---------|-(14)----------*|
|-13-15----15--13-12-13-12----------|-14---------|-(14)----------*|
|--------------------------15-13-15-|-14---------|-(14)----------*|
|-----------------------------------|------------|---------------*|
|-----------------------------------|------------|---------------*|
|
|                                           TP
|  Q        Q      Q           Q       H    H        W
|-11-------11----------------------|------------|---------------*|
|-11-------11----------------------|--5----5----|---5-----------*|
|-12-------12-----5-----------5----|--6----6----|---6-----------*|
|-13-------13-----6-----------6----|--7----7----|---7-----------*|
|-13-------13-----6-----------6----|--7----7----|---7-----------*|
|-11-------11-----4-----------4----|--5----5----|---5-----------*|




Related for Light My Fire tab