Song name
# A B C D E F G H I J K L M N O P Q R S T U V W X Y Z

Doors - Peace Frog tab

                ==PEACE FROG==
                  The Doors

This is one of the Doors' best songs. Enjoy!

INTRO

Play this 4 times
                               >       >
e|-------------------------------------------------|
B|-3-------3--------X-------X---X---X---X---X------|
G|-x----X--X----X---X---X---X---X---X---X---X------|
D|-5----X--5----X---X---X---X---X---X---X---X------|
A|-5-------5----X-------X-----------------------0--|
E|-------------------------------------------------|

Part 1
                      >     >     >  >
e|----------------------------------------------|
B|--3--3---3---3---X--X--X--X--X--X--X--X-------|
G|--X--X---X---X---X--X--X--X--X--X--X--X-------|
D|--5--5---5---5---X--X--X--X--X--X--X--X-------|
A|--5--5---5---5--------------------------------|
E|------------------------------------------0---|

                    >         >     >
e|-------------------------------------------|
B|--3--3--3---3--X--X------X--X--X--X--------|
G|--X--X--X---X--X--X------X--X--X--X--------|
D|--5--5--5---5--X--X---X--X--X--X--X--------|
A|--5--5--5---5---------X--------------------|
E|-------------------------------------0--0--|

Play this 3 times, plus this

                       >        >     >
e|---------------------------------------------|
B|--3--3--3---3--X--X--X--X--X--X--X--X--X-----|
G|--X--X--X---X--X--X--X--X--X--X--X--X--X-----|
D|--5--5--5---5--X--X--X--X--X--X--X--X--X-----|
A|--5--5--5---5-----------------------------0--|
E|---------------------------------------------|

                       >
e|--------------------------------------|
B|--3--3--3---X--X--X--X----X--X--X--X--|
G|--X--X--X---X--X--X--X----X--X--X--X--|
D|--5--5--5---X--X--X--X----X--X--X--X--|
A|--5--5--5--------------------------X--|
E|--------------------------------------|

Then this

e|-----------------------------------------------------|
B|-------3---------------------------------------------|
G|---/4-----2p0-----0-----2--2p0-----0-----------0-----|
D|---------------2-----2----------2----------0h2----2--|
A|--------------------------------------0h2------------|
E|-----------------------------------------------------|

First ending
e|------------------------------0-----5-------5--|
B|-----------------------0h2h4-------------------|
G|----------------0--/4------------/6----6--6----|
D|---------0--2h4--------------------------------|
A|--0--2h4---------------------------------------|
E|-----------------------------------------------|   Then repeat Part 1,
                                                     and then do 2nd ending
Second Ending

e|-----------------------0--7b--5-----5----------------------------7---7-|
B|---------------------0-----------7-----7b-7--4-------------------------|
G|---------------0--/4----------------------------6b--6-4-6-4---/8---8---|
D|--------0--2b4----------------------------------------------6----------|
A|-0--2b4----------------------------------------------------------------|
E|-----------------------------------------------------------------------|

Interlude

e|----------------------------------------------------|
B|----------------------------------------------------|
G|----------------------------------------------------|
D|----------------------------------------------------|
A|--------0----2--0-----0------------0----2--0-----0--|
E|--0--3-----3-------3----3--0--0--3----3-------3-----|

e|--0-0--0---0-0--0---0--0--0--0--0--|
B|--3-3--3---0-0--0---0--0--0--0--0--|
G|--0-0--0---0-0--0---0--0--0--0--0--|
D|--2-2--2---2-2--2---2--2--2--2--2--|
A|--2-2--2---2-2--2---2--2--2--2--2--|
E|-----------------------------------|

Guitar Solo

e|------------------------------------------------------------------|
B|--18-18-15----15-------------------------15-----15-----15-----15--|
G|-----------17b----17b-15-17-15----15-17b----17b----17b----17b-----|
D|-------------------------------17---------------------------------|
A|------------------------------------------------------------------|
E|------------------------------------------------------------------|

e|-------------------------------------------------------------------|
B|--------15----15-----15-----15-------15-----15-----15-----15-------|
G|--17bbb----17----17b----17b----17bbb----17b----17b----17b----------|
D|-------------------------------------------------------------------|
A|-------------------------------------------------------------15b16-|
E|-------------------------------------------------------------------|

e|-----------------------------------15-17b--17-15----15-----------|
B|--------------------------15-16-17---------------17----18b--17b--|
G|-----------------15-16-17----------------------------------------|
D|--------15-16-17-------------------------------------------------|
A|--17-17----------------------------------------------------------|
E|-----------------------------------------------------------------|

e|--------------------------------------------------------15--17b--|
B|--15-18b---------------------------------------15-16-17----------|
G|---------17b--------------------------15-16-17-------------------|
D|-----------------------------15-16-17----------------------------|
A|--------------17-17-15-16-17-------------------------------------|
E|-----------------------------------------------------------------|

e|--17-15----15----15-15-15-15-15------|
B|--------18----18----------------18b--|
G|-------------------------------------|
D|-------------------------------------|
A|-------------------------------------|
E|-------------------------------------|

Bridge

e|--5-----------------------3---3---3--3------3--3--3-|
B|--3---5---6---5---4---3---5---X---X--X------X--X--X-|
G|--0---0-------0---0---5---3---X---X--X------5--5--5-|
D|----------------------5---0---X---X--X------5--5--5-|
A|----------------------------------------------------|
E|----------------------------------------------------|

Outro

e|----------------------------------------|
B|--3---3--3-------------X--X--X--X--X----|
G|--X---X--X---X--X--X---X--X--X--X--X----|
D|--5---5--5---X--X--X---X--X--X--X--X----|
A|--5---5--5---X--X--X--------------------|
E|-------------------------------------0--|

e|--------------------------------------|
B|--3---3--3---X--X---X--X--X--X--X-----|
G|--X---X--X---X--X---X--X--X--X--X-----|
D|--5---5--5---X--X---X--X--X--X--X-----|
A|--5---5--5----------------------------|
E|-----------------------------------0--|

PLAY 4 TIMES

e|----------------------------------------|
B|--3---3--3-------------X--X--X--X--X----|
G|--X---X--X---X--X--X---X--X--X--X--X----|
D|--5---5--5---X--X--X---X--X--X--X--X----|
A|--5---5--5---X--X--X--------------------|
E|-------------------------------------0--|

e|--6--6--6----------------------------------|
B|--6--6--6---------X---X--X--X--X--X--------|
G|--X--X--X------X--X---X--X--X--X--X--------|
D|--5--5--5---5--X--X---X--X--X--X--X--------|
A|--5--5--5---5--X---------------------------|
E|-------------------------------------0--0--|

e|--6---6-6-----------------------------|
B|------6-6--X--X--X--X--X--X--X--X-----|
G|-----------X--X--X--X--X--X--X--X-----|
D|-----------X--X--X--X--X--X--X--X-----|
A|--------------------------------------|
E|-----------------------------------0--|


e|-----------------------------------------|
B|--3---3--3-------------X--X--X--X--------|
G|--X---X--X---X--X--X---X--X--X--X--------|
D|--5---5--5---X--X--X---X--X--X--X--------|
A|--5---5--5---X--X--X---------------------|
E|-----------------------------------0--0--|

e|--------------------------------------|
B|--3---3--3---X--X---X--X--X--X--X-----|
G|--X---X--X---X--X---X--X--X--X--X-----|
D|--5---5--5---X--X---X--X--X--X--X-----|
A|--5---5--5----------------------------|
E|-----------------------------------0--|

e|-------------------------------------------|
B|--3--3--3--3-------------X--X--X-----------|
G|--X--X--X--X---X--X--X---X--X--X--X--0-----|
D|--5--5--5--5---X--X--X---X--X--X--X--------|
A|--5--5--5--5---X--X--X------------X--------|
E|----------------------------------------0--|

e|--------------------------------------|
B|--6---6--6---X--X---X--X--X--X--X-----|
G|--X---X--X---X--X---X--X--X--X--X-----|
D|--5---5--5---X--X---X--X--X--X--X-----|
A|--5---5--5----------------------------|
E|-----------------------------------0--|

e|---------------------------------------|
B|--6--6--6--6--X--X---X--X--X--X--X-----|
G|--X--X--X--X--X--X---X--X--X--X--X-----|
D|--5--5--5--5--X--X---X--X--X--X--X-----|
A|--5--5--5--5---------------------------|
E|------------------------------------0--|

e|----------------------------------------|
B|--3---3--3---X--X--X---X--X--X--X-------|
G|--X---X--X---X--X--X---X--X--X--X-------|
D|--5---5--5---X--X--X---X--X--X--X-------|
A|--5---5--5------------------------------|
E|----------------------------------0--0--|

e|--------------------------------------|
B|--3--3--3--3---X--X---X---X--X--------|
G|--X--X--X--X---X--X---X---X--X--------|
D|--5--5--5--5---X--X---X---X--X--------|
A|--5--5--5--5--------------------------|
E|--------------------------------0--0--|

e|--------------------------------------|
B|--3--3--3--3---X--X---X--X--X--X------|
G|--X--X--X--X---X--X---X--X--X--X------|
D|--5--5--5--5---X--X---X--X--X--X------|
A|--5--5--5--5--------------------------|
E|--------------------------------0--0--|

e|--------------------------------------|
B|--3--3--3--3---X--X-----X--X--X--3----|
G|--X--X--X--X---X--X--X--X--X--X--X----|
D|--5--5--5--5---X--X--X--X--X--X--5----|
A|--5--5--5--5---------X-----------5----|
E|--------------------------------------|

Key
b       bend
bbb     bend, unbend, bend again
p       pulloff
h       hammer on

Well, there it is, as good as i can make it. Put up any complaints, comments, or
with the little "comment" button up there, and I'll make the changs as soon as I can.
Tap to rate this tab
# A B C D E F G H I J K L M N O P Q R S T U V W X Y Z