Guitaretab - guitar tabs
Song name
# A B C D E F G H I J K L M N O P Q R S T U V W X Y Z

Doors - Take It As It Comes tab

I hope this tab is correct

tuning:E,A,D,G,B,E


 verse:

  Em             G              D              Em

E-0--0-0--0-0-0--2--2-2--2-2-2--2--2-2--2-2-2--0--0-0--0-0-0---|
B-0--0-0--0-0-0--2--2-2--2-2-2--3--3-3--3-3-3--0--0-0--0-0-0---|
G-0--0-0--0-0-0--0--0-0--0-0-0--2--2-2--2-2-2--0--0-0--0-0-0---|  2x
D-2--2-2--2-2-2--0--0-0--0-0-0--0--0-0--0-0-0--2--2-2--2-2-2---|
A-2--2-2--2-2-2--2--2-2--2-2-2-----------------2--2-2--2-2-2---|
E-0--0-0--0-0-0--3--3-3--3-3-3-----------------0--0-0--0-0-0---|

refrain:

  Am      F       E
E-0--0-0--1--1-1--0--0-0--0-0-0---------------------------------------|
B-1--1-1--1--1-1--0--0-0--0-0-0---------------------------------------|
G-2--2-2--2--2-2--1--1-1--1-1-1---------------------------------------| 9x
D-2--2-2--3--3-3--2--2-2--2-2-2---------------------------------------|
A-0--0-0--3--3-3--2--2-2--2-2-2---------------------------------------|
E---------1--1-1--0--0-0--0-0-0---------------------------------------|


than the end of the refrain is this:
[ Tab from: http://www.guitaretab.com/d/doors/5548.html ]
  Am
E-0--0-0------0--0-0--------------------------------------------|
B-1--1-1------1--1-1--------------------------------------------|
G-2--2-2------2--2-2--------------------------------------------| 1x
D-2--2-2------2--2-2--------------------------------------------|
A-0--0-0------0--0-0--------------------------------------------|
E---------------------------------------------------------------|

than:

verse 2x

refrain 9x no refrain end

than is the bass solo

after the bass solo refrain 6x

the end of the last refrain is this:

  Am    F     Am
E-0--0--1--1--0----------------------------------------------------------|
B-1--1--1--1--1----------------------------------------------------------|
G-2--2--2--2--2----------------------------------------------------------| 1x
D-2--2--3--3--2----------------------------------------------------------|
A-0--0--3--3--0----------------------------------------------------------|
E-------1--1-------------------------------------------------------------|

this is all!!!!!!!!!!
play it and enjoy

here the lyrics for the song:

verse:

Time to live
Time to lie
Time to laugh
Time to die

refrain:

Take it easy, baby
Take it as it comes
Donīt move too fast
And you want your love to last
Oh,youīve been moving much to fast

verse:

Time to walk
Time to run
Time to aim your arrows
At the sun

refrain:

Take it easy, baby
Take it as it comes
Donīt move too fast
And you want your love to last
Oh,youīve been moving much to fast


Go real slow
You like it more and more
Take it as it comes
Specialize in havin fun

Take it easy, baby
Take it as it comes
Donīt move too fast
And you want your love to last
Oh,youīve been moving much to fast
Moving much to fast
Moving much to fast
Related for Take It As It Comes tab