Song name
# A B C D E F G H I J K L M N O P Q R S T U V W X Y Z

Dope - Sick tab

Help us improve GuitareTab! Take a short survey!
Sick by Dope
Guitarist: Tripp Eisen + Edsel Dope
Album: Felons And Revolutionaries
Tabbed by Riff Dope
Tuning: Drop D (D A D G B E)

Chorus
E|------------------------------------|
B|------------------------------------|
G|------------------------------------|
D|-0-xxxx-0-xxxx-0-xxxx-0-xx-0-xx-0-3-|
A|-0-xxxx-0-xxxx-0-xxxx-0-xx-0-xx-0-3-|
D|-0-xxxx-0-xxxx-0-xxxx-0-xx-0-xx-0-3-|

Verse
E|------------------------|
B|------------------------|
G|---7--------------------|
D|------------------------|
A|---5--------------------|
D|-0----0-6-0-5-0-5-0-3-3-|
PM -    -   -   -   -

Interlude part 1
E|----------------------------|
B|----------------------------|
G|---7------------------------|
D|-0-7--0-6-0-5-0-5-0-xxxxxxx-|
A|-0-5--0-6-0-5-0-5-0-xxxxxxx-|
D|-0----0-6-0-5-0-5-0-xxxxxxx-|

Interlude part 2
E|-------------------------------------|
B|-------------------------------------|
G|---7---------------------------------|
D|-0-7--0-6-0-5-0-5-0--1--1--xxxx-xxxx-|
A|-0-5--0-6-0-5-0-5-0--1--1--xxxx-xxxx-|
D|-0----0-6-0-5-0-5-0--1--1--xxxx-xxxx-|

Song Structure
Drums
Drums + Bass
Chorus
Verse No Guitar
Verse
Drums
Chorus
Slide
Verse No Guitar
Verse
Chorus
Interlude part 1
Interlude part 2
Chorus
Related for Sick tab