Song name
# A B C D E F G H I J K L M N O P Q R S T U V W X Y Z

Dope - Falling Away tab

Falling Away by Dope
Guitarist: Virus + Edsel Dope
Album: Group Therapy
Tabbed by Riff Dope
Tuning: Drop Db (C# G# C# F# A# D#)

Chorus
D#|----------------------------|
A#|----------------------------|
F#|------------------3---------|
C#|-0--3--0-6-5-0--3-3--0--1-1-|
G#|-0--3--0-6-5-0--3-1--0--1-1-|
C#|-0--3--0-6-5-0--3----0--1-1-|

Verse
D#|--------------|
A#|--------------|
F#|------------3-|
C#|-6--0-1-0-3-3-|
G#|-6--0-1-0-3-1-|
C#|-6--0-1-0-3---|

Fill
i don't know the part right before the chorus... any help would be great

Interlude
D#|------------------------------------|
A#|------------------------------------|
F#|------------------------------------|
C#|-00--00--00--3-6-3--00--00--00--1-1-|
G#|-00--00--00--3-6-3--00--00--00--1-1-|
C#|-00--00--00--3-6-3--00--00--00--1-1-|

Song Structure
Chorus
Verse No Guitar
Verse
Fill
Chorus
Verse No Guitar
Verse
Chorus
Interlude
Bass + Vocals
Fill
Chorus
Tap to rate this tab
# A B C D E F G H I J K L M N O P Q R S T U V W X Y Z