Song name
# A B C D E F G H I J K L M N O P Q R S T U V W X Y Z

Dope - Die Mf Die tab

Dope - Die Mother fucker die
Ok yall' this is merely a guide really.I know i have the very first part right.The rest 
a guide from what i've heard from ear.
The tuning is drop D.The intro starts with like some fuzzy recording n stuff then this
e---------------------------------------------------|
b---------------------------------------------------|
g---------------------------------------------------|
d---------------------------------------------------|
a--0-0--1-0-0-0-1-0---0-0------0-0-1-0-0-0-1-0--0-0-|
e--0-0--1-0-0-0-1-0---0-0------0-0-1-0-0-0-1-0--0-0-|
Palm mute  throughout.
e---------------------------------------------------|
b---------------------------------------------------|
g---------------------------------------------------|
d---------------------------------------------------|
a-0-0-1-0--00-1-0-01-01--0-0--1--0-00-1-0-01-01--10-|
e-0-0-1-0--00-1-0-01-01--0-0--1--0-00-1-0-01-01--10-|

Rah!!!
e---------------------------------------------------|
b---------------------------------------------------|
g---------------------------------------------------|
d---------------------------------------------------|
a-4-4--1--0--4-4-1--4--1--0--4--0-1-----------------|
e-4-4--1--0--4-4-1--4--1--0--4--0-1-----------------|

Ok thats all i have has a guide.There are no other tabs out for this so this should help 
alot.From what i have here some one can upgrade it and make it into a whole song.But im 
sure this is all you will need.Please rate and comment
Tap to rate this tab
# A B C D E F G H I J K L M N O P Q R S T U V W X Y Z