Song name
# A B C D E F G H I J K L M N O P Q R S T U V W X Y Z

Doping Panda - Transient Happiness tab

intro
E:-------------------------------------------|
B:--------10--11---------------10-10--11-----|
G:-7------10--10--------7------10-10--10-----|
D:-8--8-----------------8--8-----------------|
A:-6--6----8--10-(x4)---6--6----8--8--10-----|
E:-------------------------------------------|

verse
E:-------------------------------------------|
B:--------10--11---------------10-10--11-----|
G:-7------10--10--------7------10-10--10-----|
D:-8--8-----------------8--8-----------------|
A:-6--6----8--10-(x4)---6--6----8--8--10-----| x2
E:-------------------------------------------|

chorus
E:--------------------------------------------|
B:-------3-3----------------------------------|
G:-1--1--3-3---3--3--5-5----------------------|
D:-1--1--1-1---3--3--5-5----------------------|
A:-------------1--1--3-3----------------------| x2
E:--------------------------------------------|

E:--------------------------------------------|
B:-------3-3----------------------------------|
G:-1--1--3-3---------5-5----------------------|
D:-1--1--1-1---4--4--5-5----------------------|
A:-------------2--2--3-3----------------------|
E:--------------------------------------------|

E:---------------------------------------------|
B:-------3-3-----------------------------------|
G:-1--1--3-3---3--3--5-------------------------|
D:-1--1--1-1---3--3--5-------------------------|
A:-------------1--1--3-------------------------|
E:---------------------------------------------|

http://www.dopingpanda.com
Tap to rate this tab
# A B C D E F G H I J K L M N O P Q R S T U V W X Y Z