Guitaretab - guitar tabs
Song name
# A B C D E F G H I J K L M N O P Q R S T U V W X Y Z

Doubting Paris - August tab

-------------------------------------------------------------------------------
			     August - Doubting Paris
-------------------------------------------------------------------------------
Tabbed by: Ian Miller	
Email: dmb41302@gmail.com

*This is my first tab

**Capo on 3 (all notes relative to capo)

Tuning:EADgbe

	Intro- after the notes are played the first time, listen for rhythm 
e|---------------------------------------------------------------------------|
B|-----0~-----0~---0~--------------------------------------------------------|
G|--9~-----9~------6~--------------------------------------------------------|
D|--9~-----9~------7~--------------------------------------------------------|
A|--7~-----5~------7~--------------------------------------------------------|
E|-----------------5~--------------------------------------------------------|
	*play around with this during the first verse*

	Verse(after first chorus)- listen for rhythm
e|---0-----0------0----------------------------------------------------------|
B|---0-----0------0----------------------------------------------------------|
G|---9-----9------6----------------------------------------------------------|
D|---9-----9------7----------------------------------------------------------|
A|---7-----5------7----------------------------------------------------------|
E|----------------5----------------------------------------------------------|
[ Tab from: http://www.guitaretab.com/d/doubting-paris/148505.html ]
	Pre-Chorus " Blame on someone else"
e|---0-------0---------------------------------------------------------------|
B|---0-------0---------------------------------------------------------------|
G|--(4)------2---------------------------------------------------------------|
D|---5-------2---------------------------------------------------------------|
A|---5-------0---------------------------------------------------------------|
E|---3-------0---------------------------------------------------------------|

	Chorus- "walk slowly for a moment...." listen for rhythm
e|--0-----0-----0-----0------------------------------------------------------|
B|-(3)---(3)---(8)---(7)-----------------------------------------------------|
G|--0-----0-----0-----0------------------------------------------------------|
D|--2-----0-----9\----7------------------------------------------------------|
A|--3-----2-----7\----5------------------------------------------------------|
E|--------3------------------------------------------------------------------|

	Breakdown- "someone turns his face..." Not 100% on this, but close
e|--0----0----0----------0----0----0-----0-----------------------------------|
B|-(3)---0----0---------(3)---0----0-----0-----------------------------------|
G|--0----0----0----------0----0----0-----0-----------------------------------|
D|--2----9----7----------2----9----2-----7-----------------------------------|
A|--3----7----5----------3----7----3-----5-----------------------------------|
E|---------------------------------------------------------------------------|
   Someone....		Fingertips...        ***listen for rhythm, tricky      

*play chorus after this, then revert back to the intro part
 but dont play the thrid chord, letting it ring	

**chorus then repeats again after this part

***End by finger picking first chord in chorus



| /  slide up
| \  slide down
| h  hammer-on
| p  pull-off
| ~  vibrato
| +  harmonic
| x  Mute note
===============================================================================
Related for August tab
Advertisement will be closed in 10 seconds