Song name
# A B C D E F G H I J K L M N O P Q R S T U V W X Y Z

Doug Paisley - End Of The Day tab

-----------------------------------------------------------------------------------------------
END OF THE DAY - Doug Paisley
-----------------------------------------------------------------------------------------------
Tabbed by: Kevin Thompson
Email: Kthompson0812@yahoo.com

INTRO:

E |------------------------------------------1-----------------------------------------------|
B |----------------------------------1-----------------------------------------------------1-|
G |---2-(2)-2---0---0---2-0-----0-0h2---0-0h2----2-(0)-2p0---0-0----0---0-0h2-0-------0-0h2--|
D |---------------3---------3-----------------------------h3------3---3---------3-3----------|
A |------------------------------------------------------------------------------------------|
E |-1----------------------------------------------------------------------------------------|

E |------1---------------------------------------------1------------------6--3--10--|
A |---------1-(1)-1----------------------------1--------------------------7--5--10--|
D |-0-0h2------------2-0-2--0---0--2-0----0-0h2---0-0h2-------------------8--5--10--|
G |---------------------------3--------0-------------------------3--------8--5--10--|
B |---------------------------------------------------------0h2h3--3------8--3--8---|
E |-----------------------------------------------------------------------6---------|


F                 C          F
At the end of the long, long day
C                                   F
come go with me in the blue and the gray
              F
There's no up there's no down
F            C      Dm
and there's no way around
A#      C         F
At the end of the day


F                    C                        F
I'll follow the line where the land meets the sun
C                                        F
I looked to the hills where the dark has begun
   F                          C            Dm
My fears are reserved for the deeds of the day
A#        C      F
that are faded away...


Chorus:
              A#
I'm gonna get by
A#            F
I'm gonna get through
F                   A#
When the river runs dry
A#                 F
I'm gonna cross to you
           F
There's no up there's no down
            C      Dm
and there's no way around
A#      C         F
at the end of the day

{ORGAN SOLO}

F                                C        F
You're heart it is worn you're a bleeding machine
C                         F
A ghost hand lifts you up out of your dreams
F                              C             Dm
See the sunlight combed on the shapes at the fray
A#     C          F
At the end of the day


Chorus:
              A#
I'm gonna get by
A#            F
I'm gonna get through
F                   A
When the river runs dry
A                  A#     F
I'm gonna cross to you
           F
There's no up there's no down
            C      Dm
and there's no way around
A#     C          F
at the end of the day


Repeat Intro:

E |------------------------------------------1-----------------------------------------------|
B |----------------------------------1-----------------------------------------------------1-|
G |---2-(2)-2---0---0---2-0-----0-0h2---0-0h2----2-(0)-2p0---0-0----0---0-0h2-0-------0-0h2--|
D |---------------3---------3-----------------------------h3------3---3---------3-3----------|
A |------------------------------------------------------------------------------------------|
E |-1----------------------------------------------------------------------------------------|

E |------1---------------------------------------------1------------------6--3--10--|
A |---------1-(1)-1----------------------------1--------------------------7--5--10--|
D |-0-0h2------------2-0-2--0---0--2-0----0-0h2---0-0h2-------------------8--5--10--|
G |---------------------------3--------0-------------------------3--------8--5--10--|
B |---------------------------------------------------------0h2h3--3------8--3--8---|
E |-----------------------------------------------------------------------6---------|
Tap to rate this tab
# A B C D E F G H I J K L M N O P Q R S T U V W X Y Z