Song name
# A B C D E F G H I J K L M N O P Q R S T U V W X Y Z

Dougie Maclean - Caledonia tab

intro and verse:
|-------0-----------0-----------0-----------0-----------0----------------|
|-----0---0-------0---0-------0---0-------0---0-------0---0--------------|
|---1-------1---2-------2---4-------4---6-------6---6-------0------------|
|-2-----------4-----------6-----------7-----------7----------------------|
|------------------------------------------------------------------------|
|------------------------------------------------------------------------|

chorus: 

|-------0-----------0-----------0-----------0-----------0-----------0----|
|-----0---0-------0---0-------0---0-------0---0-------0---0-------0---0--|
|---1-------1---4-------4---1-------1---2-------2---1-------1---4-------4|
|-2-----------4-----------2-----------2-----------2-----------4----------|
|------------------------------------------------------------------------|
|------------------------------------------------------------------------|

|-------0-----|then, back to verse.
|-----0---0---|
|---1-------1-|
|-2-----------|
|-------------|
|-------------|
Tap to rate this tab
# A B C D E F G H I J K L M N O P Q R S T U V W X Y Z