Doyle Bramhall - Dimples tab

Original song: By John Lee Hooker
Its just a 12 Bar progression

E----------------     X4------|     The lead parts are played by a
B-----------------------------|            heavily amplified harmonica, you
G-----------------------------|            can just add blues licks between
D-7-7-2-2-5-5-7-5-------------|            each bar to give the song more feeling
A-7-7-2-2-5-5-7-5-------------|            The song is played half a step down, but its
E-5-5-0-0-3-3-5-3-------------|            also alright to play standard tuning or in any
                             other key.
E----------------------|     X2
B----------------------|
G-7-7-2-2-5-5-7-5------|
D-7-7-2-2-5-5-7-5------|
A-5-5-0-0-3-3-5-3------|
E----------------------|


E----------------------|     X2
B----------------------|
G----------------------|
D-7-7-2-2-5-5-7-5------|
A-7-7-2-2-5-5-7-5------|
E-5-5-0-0-3-3-5-3------|


E------------------------------------------------|             The whole song pretty much
B------------------------------------------------|             keeps this same progression
G-9-9-9---7-7-7----------------------------------|
D-9-9-9---5-5-5---7-7-2-2-5-5-7-5-7--------------|
A-7-7-7---5-5-5---7-7-2-2-5-5-7-5-7--------------|
E-----------------5-5-0-0-3-3-5-3-5--------------|
Tap to rate this tab
 
# A B C D E F G H I J K L M N O P Q R S T U V W X Y Z