Dr Sin - Through My Window chords

Highlighted       Show chord diagrams
Tom: D
		

Afinação: D#

Intro: D D4 C G 

D               G
Looking through my window 
  D     A
I see a shining star 
   Bm              G          A       D  (C#) <- nota de passagem
It seems like it's telling a story to me 
Bm         Em7   D/F#       G
So hard to stay without you baby 
        Bb         A                          G    A 
In this empty room still see your face in the dark 
D        D9/F# G       A
Nothing really matters 
      D    D9/F#      G   A
Cause babe now you're gone 
D       D/F#   G      A       Bm Bm/A# Bm/A Bm/G#  (G A D)
Nothing really matters - Only you...

  Bm     Bm/A#  Bm/A   Bm/G#              G    A     D
|---0------0------0------------0--------|---------------|-2h3p2-----|
|-----3------3------3--------3---3------|---3--0--2--3--|-------3---|
|----------------------------------4----|---0--0--2--2--|---------2-|
|-------------------------6----------6--|------------0--|-0---------|
|-2------1------0-----------------------|------0--0-----|-----------|
|----------------------4----------------|-3-------------|-----------|


D            G          D      A
Sitting here playing my old guitar 
Bm        G             A         D     (C#) <- nota de passagem 
Trying to sing what I'm feeling inside 
Bm      Em7        D/F#     G
You let hard times tear us apart 
    Bb                A                G A 
I'm not that strong - But I just carry on 
D        D9/F# G       A
Nothing really matters  
      D    D9/F#      G   A
Cause babe now you're gone 
D       D/F#   G      A       Bm Bm/A# Bm/A Bm/G#  (G A D)
Nothing really matters - Only you...

  Bm     Bm/A#  Bm/A   Bm/G#              G    A     D
|---0------0------0------------0--------|---------------|-2h3p2-----|
|-----3------3------3--------3---3------|---3--0--2--3--|-------3---|
|----------------------------------4----|---0--0--2--2--|---------2-|
|-------------------------6----------6--|------------0--|-0---------|
|-2------1------0-----------------------|------0--0-----|-----------|
|----------------------4----------------|-3-------------|-----------|


(C)
              G                 (D D4 D9 D D4)2x C9
How long will we be wasting our time 
             G                   A
Remember the night you lay by my side 
D D4 C9 G              D D4 C9 G
         You lay by my side
Tap to rate this tab
 
# A B C D E F G H I J K L M N O P Q R S T U V W X Y Z