Guitaretab - guitar tabs
Song name
# A B C D E F G H I J K L M N O P Q R S T U V W X Y Z

Dragon - Are You Old Enough tab

Highlighted       Show chord diagrams
Are You Old Enough - Dragon

*Intro*
D  A  C  G

Intro Lead
e ||----------------------------------------------||
B ||-7---7-8-7-8-10---8-7-10---7-8-7-8-7-8-7------||
G ||-----------------------------------------7----||
D ||----------------------------------------------||
A ||----------------------------------------------||
E ||----------------------------------------------||

D                A 
Ten years in the jailerís eye
        C
And Iím thinkiní Ďbout my baby
G                  D     A   C  G 
Lookiní at my life go by 
D              A 
Falliní in the streets of Rome
        C
And Iím laughiní at the poor man
G                    D   A  C  G  
Talkiní to the blind man 

*Pre-chorus*
Bm                  G
See the lady in the street car light
Bm             G 
Colour a la toulouse
Bm               G 
Television and a red, red wine
Em
So wonít you tell me
A                     D
Wonít you tell me the truth

*Chorus*
        A          C  |
Are you old enough    | X2 (pick chords)
        G          D  | 
Are you old enough    |

        A               C
Are you old enough, ooh ooh
        G              D
Are you old enough for love
[ Tab from: http://www.guitaretab.com/d/dragon/79989.html ]
End of chorus/start of 2nd verse
e ||----------------------------------------------||     |
B ||-7---7-8-10---8-10-12--10-8--7-8-7------------||     | x 2
G ||-----------------------------------7----------||
D ||----------------------------------------------||
A ||----------------------------------------------||
E ||----------------------------------------------||

D             A
Time goes and here we stand
C
Laughiní at the sideshow
G                        D  A  C  G
Sinkiní in the quicksand
D                 A
The other side of another world
C
Scratch my back go the
G               D     A   C    G
Coloured girls, yeah,   oh yeah 

Pre-chorus:
Bm               G
I just wanted to kiss someone
Bm                G
I got the moondog blues
Bm                      G
You just happened to be standiní there
Em
So wonít you tell me
A                     D
Wonít you tell me the truth

*Chorus*
*End of chorus*

e ||----------------------------------------------||    
B ||-7---7-8-10---8-10-12--10-8--7-8-7------------||     
G ||-----------------------------------7----------||
D ||----------------------------------------------||
A ||----------------------------------------------||
E ||----------------------------------------------||

Bridge [chords per intro/verse]
e ||-----------------------------------------------------------------||
B ||-----------------------------------------------------------------||
G ||--7----7-6----6-5----5-4-----------------------------------------||
D ||----7------7------5------5---------------------------------------||
A ||-----------------------------------------------------------------||
E ||-----------------------------------------------------------------||

D    A
Ahhh ah
C    D
Ahhh ah

*Pre-chorus* (per 1st)

*Chorus*   (1st verse as backing)
Related for Are You Old Enough tab