Song name
# A B C D E F G H I J K L M N O P Q R S T U V W X Y Z

Dragonforce - Where Dragons Rule tab

This version of the song wasn't on the albums, it was in a video game.

+-----------------+
|     LEGEND      |
+---+-------------+
|   |     Name    |
+---+-------------+
| B | Bend        |
| H | Hammer      |
| P | Pull        |
| / | Slide Up    |
| \ | Slide Down  |
| < | Whammy Up   |
| > | Whammy Down |
|Tap| Tapping     |
+---+-------------+

+----------------------------------+
|            DURATIONS             |
+---+-------+----------------------+
|   | Beats |         Name         |
+---+-------+----------------------+
| W |   4   | Whole                |
| H |   2   | Half                 |
| H.|   3   | Dotted Half          |
| Q |   1   | Quarter              |
| Q.| 1 1/2 | Dotted Quarter       |
| E |  1/2  | Eigth                |
| E.|  3/4  | Dotted Eighth        |
| S |  1/4  | Sixteenth            |
| S.|  3/8  | Dotted Sixteenth     |
| T |  1/8  | Thirty-Second        |
| T.|  3/16 | Dotted Thirty-Second |
+---+-------+----------------------+
|+* |       | Add-on to last note  |
+---+-------+----------------------+









+-------------------------------+
| Herman Li: Slightly Distorted |
+-------------------------------+

+------+
| 1:15 |
+------+

    E.    E.    E     E.    E.    E     E.    E.    E     W
E-|-7-----9-----7---|-----------------|-------7---------|-7---------------|
B-|-----------------|-10----9-----10--|-10----------10--|-----------------|
G-|-----------------|-----------------|-----------------|-----------------|
D-|-----------------|-----------------|-----------------|-----------------|
A-|-----------------|-----------------|-----------------|-----------------|
E-|-----------------|-----------------|-----------------|-----------------|
                                                                   Dragons

    E.    E.    E     E.    E.    E     E.    E.    E     H.         +S S
E-|-7-----9-----7---|-------7-----9---|-9-----10----9---|-7-----------L-7/|
B-|-----------------|-10--------------|-----------------|-----------------|
G-|-----------------|-----------------|-----------------|-----------------|
D-|-----------------|-----------------|-----------------|-----------------|
A-|-----------------|-----------------|-----------------|-----------------|
E-|-----------------|-----------------|-----------------|-----------------|
    rule.                               Oh,               Dragons     rule.

    E.    E.    E     E.    E.    E     E.    E.    E     W
E-|-19----21----19--|-----------------|-------19--------|-19--------------|
B-|-----------------|-22----21----22--|-22----------22--|-----------------|
G-|-----------------|-----------------|-----------------|-----------------|
D-|-----------------|-----------------|-----------------|-----------------|
A-|-----------------|-----------------|-----------------|-----------------|
E-|-----------------|-----------------|-----------------|-----------------|

    E.    E.    E     E.    E.    E     E.    E.    E     E.    E.    E
E-|-19----21----19--|-------19----21--|-21----22----21--|-19----------19--|
B-|-----------------|-22--------------|-----------------|-------22--------|
G-|-----------------|-----------------|-----------------|-----------------|
D-|-----------------|-----------------|-----------------|-----------------|
A-|-----------------|-----------------|-----------------|-----------------|
E-|-----------------|-----------------|-----------------|-----------------|

    W
E-|-----------------|
B-|-----------------| x 18
G-|-----------------|
D-|-----------------|
A-|-----------------| x 18
E-|-----------------|

+------+
| 1:59 |
+------+

    |-3-| |-3-| |-3-| |-3-| |-3-| |-3-| |-3-| |-3-| |-3-| |-3-| |-3-| |-3-| |-3-| |-3-|
    T T T T T T T T T T T T T T T T T T T T T T T T T T T T T T T T T T T T T T T T T T
E-|-------------14----------------------14----------------------14----------------------|
B-|-----------15--15------------------15--15------------------15--15------------------15|
G-|-------1214------1412----------1214------1412----------1214------1412----------1214--|
D-|---1215--------------1512--1215--------------1512--1215--------------1512--1215------|
A-|-14----------------------14----------------------14----------------------14----------|
E-|-------------------------------------------------------------------------------------|

    E   H.            W
E-|-14--------------|-----------------|
B-|-----------------|-----------------|
G-|-----------------|-----------------|
D-|-----------------|-----------------|
A-|-----------------|-----------------|
E-|-----------------|-----------------|

    
    |-3-| |-3-| |-3-| |-3-| |-3-| |-3-| |-3-| |-3-| |-3-| |-3-| |-3-| 
    T T T T T T T T T T T T T T T T T T T T T T T T T T T T T T T T T T T+E.
E-|-----------------------------------------------------15--15191519221922--------------|
B-|-----------------------------------------15--15191519--19----------------------------|
G-|-----------------------------15--15191519--19----------------------------------------|
D-|-----------------15--15191519--19----------------------------------------------------|
A-|-----15--15191519--19----------------------------------------------------------------|
E-|-1519--19----------------------------------------------------------------------------|

    W
E-|-----------------|
B-|-----------------| x 18
G-|-----------------|
D-|-----------------|
A-|-----------------| x 18
E-|-----------------|

    E.    E.    E     E.    E.    E     E.    E.    E     W
E-|-7-----9-----7---|-----------------|-------7---------|-7---------------|
B-|-----------------|-10----9-----10--|-10----------10--|-----------------|
G-|-----------------|-----------------|-----------------|-----------------|
D-|-----------------|-----------------|-----------------|-----------------|
A-|-----------------|-----------------|-----------------|-----------------|
E-|-----------------|-----------------|-----------------|-----------------|

    E.    E.    E     E.    E.    E     E.    E.    E     E.    E.    E
E-|-19----21----19--|-------19----21--|-21----22----21--|-19----------19--|
B-|-----------------|-22--------------|-----------------|-------22--------|
G-|-----------------|-----------------|-----------------|-----------------|
D-|-----------------|-----------------|-----------------|-----------------|
A-|-----------------|-----------------|-----------------|-----------------|
E-|-----------------|-----------------|-----------------|-----------------|

    W
E-|-----------------|
B-|-----------------| x 9
G-|-----------------|
D-|-----------------|
A-|-----------------| x 9
E-|-----------------|

    |-3-| |-3-| |-3-| |-3-| |-3-| |-3-| |-3-| |-3-| |-3-| |-3-| |-3-| |-3-| 
    T T T T T T T T T T T T T T T T T T T T T T T T T T T T T T T T T T T T E
E-|-22192219151915--15------------------------------------------------------------------|
B-|---------------19--19151915--15------------------------------------------------------|
G-|---------------------------19--19151915--15------------------------------------------|
D-|---------------------------------------19--19151915--15------------------------------|
A-|---------------------------------------------------19--19151915--15------------------|
E-|---------------------------------------------------------------19--19151915----------|

    W
E-|-----------------|
B-|-----------------| x 2
G-|-----------------|
D-|-----------------|
A-|-----------------| x 2
E-|-----------------|

    Tap         Tap         Tap         Tap         Tap         Tap         Tap         Tap
    T  T  T  T  T  T  T  T  T  T  T  T  T  T  T  T  T  T  T  T  T  T  T  T  T  T  T  T  E
E-|-22p15h19p15h22p15h19p15h22p15h19p15h22p15h19p15h22p15h19p15h22p15h19p15h22p15h19p15h22------|
B-|---------------------------------------------------------------------------------------------|
G-|---------------------------------------------------------------------------------------------|
D-|---------------------------------------------------------------------------------------------|
A-|---------------------------------------------------------------------------------------------|
E-|---------------------------------------------------------------------------------------------|

    W
E-|-----------------|
B-|-----------------| x 20
G-|-----------------|
D-|-----------------|
A-|-----------------| x 20
E-|-----------------|

Sorry guys, don't have it all yet. Just the first 3 minutes.

More to come!
Tap to rate this tab
# A B C D E F G H I J K L M N O P Q R S T U V W X Y Z