Song name
# A B C D E F G H I J K L M N O P Q R S T U V W X Y Z

Dragonforce - Revolution Deathsquad tab

#------------------------------------------------------------------#
  This is not my work, I just took it from the guitar pro tab, but I
  had to work hard to get the Intro right.
  Enjoy.
#------------------------------------------------------------------#|

Band - DragonForce            Tuning - Standard, Low to High: EBGDAe
Album - Inhuman Rampage       Tempo - Measure 1-5: Quarter=130 6-16 Q=110
Song - Revolution Deathsquad

Measure 1
|------------------------------------------------------|
|------------------------------------------------------|
|------------------------------------------------------|
|---------------------------------------5--5-----------|
|--5---5--7--7--7--7--8--8--7--7--8--8--------8--8--7--|
|------------------------------------------------------|

2
|------------------------------------------------------|
|------------------------------------------------------|
|------------------------------------------------------|
|---------------------------------------5--5-----------|
|--5---5--7--7--7--7--8--8--7--7--8--8--------8--8--7--|
|------------------------------------------------------|

3
|------------------------------------------------------|
|------------------------------------------------------|
|------------------------------------------------------|
|---------------------------------------5--5-----------|
|--5---5--7--7--7--7--8--8--7--7--8--8--------8--8--7--|
|------------------------------------------------------|

4                                                       5 (7 is a whole note)
|------------------------------------------------------|---------|
|------------------------------------------------------|---------|
|------------------------------------------------------|---------|
|--8----8---8---8---8---8---8---7-----7----7-----------|--7------|
|------------------------------------------------------|---------|
|------------------------------------------------------|---------|

6  Tempo change to: 110
|---------------------------------------|
|---------------------------------------|
|--10----9----7-------------------------|
|----------------10-----7--(10)-7---10--|
|---------------------------------------|
|---------------------------------------|

7              full bend
|------------------/\---------------------|
|-----------------/--\--------------------|
|--7---9---10--10/----\10--9--------------|
|-----------------------------------------|
|-----------------------------------------|
|-----------------------------------------|

8
|---------------------------------------|
|---------------------------------------|
|--10----9----7-------------------------|
|----------------10-----7--(10)-7---10--|
|---------------------------------------|
|---------------------------------------|

9              full bend   P.H
|------------------/\---------------------|
|-----------------/--\--------------------|
|--7---9---10--10/----\10---10------------|
|-----------------------------------------|
|-----------------------------------------|
|-----------------------------------------|

10
|---------------------------------------|
|---------------------------------------|
|--10----9----7-------------------------|
|----------------10-----7--(10)-7---10--|
|---------------------------------------|
|---------------------------------------|

11
|----------------------------------------------|
|----------------------------------------------|
|--7----9----10---14--12--10--12--10--9--10--7-|
|----------------------------------------------|
|----------------------------------------------|
|----------------------------------------------|

12
|---------------------------------------|
|---------------------------------------|
|--10----9----7-------------------------|
|----------------10-----7--(10)-7---10--|
|---------------------------------------|
|---------------------------------------|

13
|----------------------------------------------------------|
|----------------------------------------------------------|
|--7----7/9--10---9h7--10-7-10-7-10-7-9-7-9-7-9-7-9-7-9-7--|
|----------------------[all are hammer-ons and pull-offs]--|
|----------------------------------------------------------|
|----------------------------------------------------------|

14 WHAMMY LIKE CRAZY!!!
|---------------------------------------|
|---------------------------------------|
|---10~~~~~~~~~7---5/9\8/10\9/11\10/12\-|
|------------------^no slide^-----------|
|---------------------------------------|
|---------------------------------------|

15   This is weird, but go along.
|-------------------------------------------------------------------------------------------------|
|-------------------------------------------------------------------------------------------------|
|-\11/12/13/14/15/16/17/18/19--20-22-19-22-19-22--10/11/12/13/14/15/16/17/18/19/24-22-24-22-24-22-|
|-------------------------------------------------------------------------------------------------|
|-------------------------------------------------------------------------------------------------|
|-------------------------------------------------------------------------------------------------|
                               --above is trill, and the last 6 notes, too--

16
|--------------------------------------------------------------------|
|--------------------------------------------------------------------|
|--10--5--9--5--7--5--9--5--10--5--9--5--7--5--9--10~~~~~~~~~~~~~~~~~|
|--------------------------------------------------------------------|
|--------------------------------------------------------------------|

That's the beginning, please rate or comment. If you have questions, comments, want to 
hi, hate me, or anything at all, email me at
whistlebug23@yahoo.com
Tap to rate this tab
 
# A B C D E F G H I J K L M N O P Q R S T U V W X Y Z