Song name
# A B C D E F G H I J K L M N O P Q R S T U V W X Y Z

Dragonforce - Revelations tab

Tabbed by unregisturd
Dragonforce - Revelations
Sonic Firestorm

This is just the intro but it should help...
Sorry but work out the pinch harmonics for yourselves
and its only mostly right so comment me about suggestions.
Toodles

Sam Totman

|--------------------------------------------------------|
|--------------------------------------------------------|
|--9--999~---9--999~---7--777~---5~----------------------|
|--9--999~---9--999~---7--777~---5~----------------------|
|--7--777~---7--777~---5--555~---3~----------------------|
|--0~-------0~-------------------------------------------|

|--------------------------------------------------------|
|--------------------------------------------------------|
|--9--999~---9--999~---7--777~---5~----------------------|
|--9--999~---9--999~---7--777~---5~----------------------|
|--7--777~---7--777~---5--555~---3~----------------------|
|--0~-------0~-------------------------------------------|

|--------------------------------------------------------|
|--------------------------------------------------------|
|--9--999~---9--999~---7--777~---5~----------------------|
|--9--999~---9--999~---7--777~---5~----------------------|
|--7--777~---7--777~---5--555~---3~----------------------|
|--0~-------0~-------------------------------------------|

|--------------------------------------------------------|
|--------------------------------------------------------|
|--9--999~---9--999~---7--777~---5~----------------------|
|--9--999~---9--999~---7--777~---5~----------------------|
|--7--777~---7--777~---5--555~---3~----------------------|
|--0~-------0~-------------------------------------------|

Herman Li

|--------------------------------------------------------|
|--------------------------------------10-12-10----------|
|--------9~----9-11-12-11--7-9~-----12----------12-11~---|
|------------9-------------------12----------------------|
|--------------------------------------------------------|
|--------------------------------------------------------|
continued
|--------------------------------------------------------|
|----------10--------------------------------------------|
|----11-12----12-11-9--11-12-----------------------------|
|-12-----------------------------------------------------|
|--------------------------------------------------------|
|--------------------------------------------------------|


|--------------------------------------------------------|
|--------------------------------------10-12-10----------|
|--------9~----9-11-12-11--7-9~-----12----------12-11~---|
|------------9-------------------12----------------------|
|--------------------------------------------------------|
|--------------------------------------------------------|
continued
|--------------------------------------------------------|
|----------10--------------------------------------------|
|----11-12----12-11-9--11-12-----------------------------|
|-12-----------------------------------------------------|
|--------------------------------------------------------|
|--------------------------------------------------------|

|--------------------------------------------------------|
|--------------------------------------10-12-10----------|
|--------9~----9-11-12-11--7-9~-----12----------12-11~---|
|------------9-------------------12----------------------|
|--------------------------------------------------------|
|--------------------------------------------------------|
continued
|--------------------------------------------------------|
|----------10--------------------------------------------|
|----11-12----12-11-9--11-12-----------------------------|
|-12-----------------------------------------------------|
|--------------------------------------------------------|
|--------------------------------------------------------|

|--------------------------------------------------------|
|--------------------------------------10-12-10----------|
|--------9~----9-11-12-11--7-9~-----12----------12-11~---|
|------------9-------------------12----------------------|
|--------------------------------------------------------|
|--------------------------------------------------------|
continued
|--------------------------------------------------------|
|----------10--------------------------------------------|
|----11-12----12-11-9--11-12-----------------------------|
|-12-----------------------------------------------------|
|--------------------------------------------------------|
|--------------------------------------------------------|
Tap to rate this tab
 
# A B C D E F G H I J K L M N O P Q R S T U V W X Y Z