Guitaretab - guitar tabs
Song name
# A B C D E F G H I J K L M N O P Q R S T U V W X Y Z

Drake Bell - Soul Man tab

E ------------------------7~~~---9-9~~----11--------------|
B -----9~~~--9\7-7-7~~------------------------------------|
G ---------------------5/7----7/9-----9/11----------------|
D --7/9-----9-----7---------------------------------------|
A --------------------------------------------------------|
E --------------------------------------------------------|
      h - hammer on
      p - pull off
      b - bend string up
      r - release bend
      / - slide up
      \ - slide down
      v - vibrato (sometimes written as ~)
      t - tap (with strumming hand)
      x - muted, struck string


Verse:(this i a harmony type thing but if u want, you can play just the e string)
|-----0--0--4-4-4-4--2--0---------|
|-----0--0--5-5-5-5--2--0---------|
|---------------------------------|
|---------------------------| <---|play this 8 times, then play the chorus
|---------------------------------|
|---------------------------------|
[ Tab from: http://www.guitaretab.com/d/drake-bell/164173.html ]
Chorus:
|------------0h--0h---3-2-0--3-2-0-0h---------0h--0h---10-10-10-12v-12hv-------------|
|-----0--2---------------------------------0--2--------------------------------------|
|------------------------------------------------------------------------------------|
|------------------------------------------------------------------------------------|
|------------------------------------------------------------------------------------|
|------------------------------------------------------------------------------------|
Chorus cont'd:(the end here is shaky, so if u think it's wrong fix it and tell me!)
|------------0h--0h---3-2-0--3-2-0-0h--------------0h--0h---------------------|
|-----0--2--------------------------------------0--2-------------------1-0----|
|--------------------------------------------------------------------3--------|
|-----------------------------------------------------------------4-----------|
|-----------------------------------------------------------------------------|
|-----------------------------------------------------------------------------|
The third chorus starts different:
|------------0h--0h---3-2-0--3-2-0-0h---------0h--0h---10/12-12-12v-12hv-------------|
|-----0--2---------------------------------0--2--------------------------------------|
|------------------------------------------------------------------------------------|
|------------------------------------------------------------------------------------|
|------------------------------------------------------------------------------------|
|------------------------------------------------------------------------------------|
then finishes as normal, but then, after third chorus you play(w/quick picking):
|-----4-4-4-4---|
|---------------|
|---------------|
|---------------|
|---------------|
|---------------| times 4, then:

|-----2-2-2-2---|
|---------------|
|---------------|
|---------------|
|---------------|
|---------------| times 4, then:

|-----3-3-3-3---|
|---------------|
|---------------|
|---------------|
|---------------|
|---------------| times 4, then:

|-----5-5-5-5---|
|---------------|
|---------------|
|---------------|
|---------------|
|---------------| times 4, then:

|-----1-1-1-1--|
|--------------|
|--------------|
|--------------|
|--------------|
|--------------| times 4, then replay the intro and then just play the verse part thru 
the end!
Have fun!


                                . . . . . . .Logan_RosarioCentral
Related for Soul Man tab
×
Soul Man