Guitaretab - guitar tabs
Song name
# A B C D E F G H I J K L M N O P Q R S T U V W X Y Z
Home / D / Draken / The End tab

Draken - The End tab

-------------------------------------------------------------------------------
			     SONG NAME -the end
-------------------------------------------------------------------------------
Tabbed by:draken

Email:ed_ski123@hotmail.com

Tuning:drop c

this is not the whole song but it`s half. i hope u guys like it.

            
d|---------------------------------------------------------------------------|
a|---------------------------------------------------------------------------|
f|---------------------------------------------------------------------------|
c|------9-10-7-10-9---------9-10-7-10-9--------8-9-6-9-8-------8-9-6-9-8-----| 2x
g|-7-10-------------10-7-10-------------10-6-9-----------9-6-9-----------9---|
c|---------------------------------------------------------------------------|

d|--------------------------------------|
a|--------------------------------------|
f|--------------------------------------|
c|-----7-8-5-8-7-------7-8-5-8-7--------|
g|-5-8-----------8-5-8-----------8-5~---|
c|--------------------------------------|
[ Tab from: http://www.guitaretab.com/d/draken/180951.html ]
d|---------------------------------------------------------------------------|
a|---------------------------------------------------------------------------|
f|-7----7--7--7/10----10--10---10\4----4--4--4/5\4--4--4--4------------------| 2x
c|---------------------------------------------------------------------------|
g|-555555555555/8-88888-888-8888-\222222222222/3\2222222222------------------|
c|---------------------------------------------------------------------------|
    xxxx xx xx    xxxx  xx  xx     xxxx xx xx     xx xx xx
d|---------------------------------------------------------------------------|
a|---------------------------------------------------------------------------|
f|---------------------------------------------------------------------------|
c|-7----7--7--7/10----10--10--10\4----4--4--4/5\4--4--4--4-------------------| 2x
g|-555555555555/8-88888-888-888-\222222222222/3\2222222222-------------------|
c|---------------------------------------------------------------------------|
    xxxx xx xx    xxxx  xx  xx    xxxx xx xx     xx xx xx
d|---------------------------------------------------------------------------|
a|---------------------------------------------------------------------------|
f|---------------------------------------------------------------------------| 2x
c|-5-5-5-5-5-5-5-5-8-8-8-8-8-8-8-8-2-2-2-2-2-2-2-3-2-2-2-2-2-2-2-2-----------|
g|-5-5-5-5-5-5-5-5-8-8-8-8-8-8-8-8-2-2-2-2-2-2-2-3-2-2-2-2-2-2-2-2-----------|
c|-5-5-5-5-5-5-5-5-8-8-8-8-8-8-8-8-2-2-2-2-2-2-2-3-2-2-2-2-2-2-2-2-----------|

d|---------------------------------------------------------------------------|
a|---------------------------------------------------------------------------|
f|---------------------------------------------------------------------------|
c|-5----5--5-6-5-8----8--8-7-8-2----2--2-3-2-2-----2--2-3-2------------------| 4x
g|-5----5--5-6-5-8----8--8-7-8-2----2--2-3-2-2-----2--2-3-2------------------|
c|-555555555-6-5-888888888-7-8-222222222-3-2-2-22222222-3-2------------------|
    xxxx xx       xxxx xx       xxxx xx        xxxx xx




| /  slide up
| \  slide down
| h  hammer-on
| p  pull-off
| ~  vibrato
| *  harmonic
| x  Mute note
===============================================================================
Advertisement will be closed in 10 seconds