Guitaretab - guitar tabs
Song name
# A B C D E F G H I J K L M N O P Q R S T U V W X Y Z

Dramarama - Anything Anything tab

Artist: Dramarama
Song: Anything Anything
Tab: Guitar (1,2) Bass
Tabbed By: Counterfit

Guitar 1: (plays throughout whole song, except interlude, during which, it's
only bass, also, play this for the very first part of the song first, then
the rest of the instruments come in)
E] -------------------------------------------------------------------------|
B] -------------------------------------------------------------------------|
G] ---------------------5-5-5-5-7-7-7-7-------------------------------------|
D]  2-2-2-2-5-5-5-5-5-5-5-5-7-7-7-7-----------------------------------------|
A]  2-2-2-2-5-5-5-5-5-5-5-5-7-7-7-7-----------------------------------------|
E]  0-0-0-0-3-3-3-3---------------------------------------------------------|
[ Tab from: ]
That plays about once, then guitar two comes in with:
E] 3-2-3-2-3-2-3-5-----|
B] --------------------|
G] --------------------|
D] --------------------|
A] --------------------|
E] --------------------|

That plays then, and also during the chorus

Bass: (plays through whole song, except the intro, which is only guitar one)

G] -----------------------------------------------------------|
D] ------------2-2-2-2-2--------------------------------------|
A] 4-4-4-4-4------------0-0-0-0-0-2-2-2-2-2-------------------|
E] -----------------------------------------------------------|

Song goes as follows:

Intro: Guitar One plays, then Guitar two and Bass follow
Verse: Guitar One and Bass
Chorus: Guitars 1 and 2 and Bass
Interlude: Just Bass

Order is simple, and easy to figure out...
Related for Anything Anything tab