Song name
# A B C D E F G H I J K L M N O P Q R S T U V W X Y Z

Drawback - Make Me tab

|=====================|
|                     |
|       Make Me       |
|      Drawback       |
|                     |
|=====================|

**I don't think the band has a website, but Northeast Records has a copy of
one of their albums: http://www.northeastrecords.com/ Unfortunately it's out
of print, but this song is a free MP3 sample of the music on the multi-artist 
album "The Aggravated Music BBQ Sampler"**

This whole song took me about ten minutes to work out - that's how simple it
is! Anyway, it's a great song by a great band, so enjoy! :D

Standard Tuning (eBGDAE)

Don't forget to rate and comment! :D


Verse/Intro (repeat as needed)
e|---------------------|
B|---------------------|
G|-------6-6-----------|
D|---7-7-6-6-5-5-6-6---|
A|---7-7-4-4-5-5-6-6---|
E|---5-5-----3-3-4-4---|

Chorus (repeat as needed)
e|---------------------|
B|---------------------|
G|---------6---6-9-----|
D|---7---7-6---6-9-----|
A|---7---7-4---4-7-----|
E|---5---5-------------|

Bridge (again, repeat as needed)
e|------------------|
B|------------------|
G|------------------|
D|------------------|
A|-----4-5-7-5-4----|
E|---5--------------|

End on
e|--------|
B|--------|
G|--------|
D|---7----|
A|---7----|
E|---5----|
Tap to rate this tab
 
# A B C D E F G H I J K L M N O P Q R S T U V W X Y Z