Dream Out Loud - Its Raining Now chords

Highlighted       Show chord diagrams
DREAM OUT LOUD -IT'S RAINING NOW.
Album- Human Race.
Chords by- RTN Silvester.


(play the following tab throughout the verses.its the original tabs & chords used in the track).
INTRO & Verse :
                                      
e|-------------------|-------------------------|
B|---------0---------|-------------------------|
G|-----1-2--2-1------|-----2-1-2-1------4------|
D|----2---------2----|----2--------2-0--7--7-7-|
A|-0-----------------|----------------5-7--7---|
E|-------------------|-2-----------------------|

verse 1:
I BEGAN TO DRIFT AWAY 
LISTENING TO THE SOUND OF FALLING RAIN 
COULDN'T WAIT ANOTHER DAY 
THERE WAS NO OTHER WAY 

SAID MY GOODBYES AND NOW 
THIS JOURNEY'S JUST BEGINNING
TIME TO MOVE ON AHEAD AND DRIVE

chorus 1:
 
Asus2                   E
IT'S RAINING NOW 
Bsus4                                Dsus2         Asus2
BUT I KNOW IT'S JUST A MATTER OF TIME
Asus2          E  
LET IT POUR 
Bsus4
I'LL SOAK IT IN 
Dsus2                 Asus2
I'M READY THIS TIME 


verse 2:
   E                    Asus2                
e|-------------------|-------------------------|
B|---------0---------|-------------------------|
G|-----1-2--2-1------|-----2-1-2-1------4------|
D|----2---------2----|----2--------2-0--77--7-|
A|-0-----------------|----------------5-7--7---|
E|-------------------|-2-----------------------|
IT'S SO UNREAL 
YET I KNEW IT ALL ALONG
I BELIVE YOU NOW
YOU DON'T HAVE TO SAY A THING

NO MORE TEARS TO CRY
NO MORE NEED TO LIE
RIGHT NOW I'M LEAVING
FOR ME. 

SAID MY GOODBYES AND NOW 
THIS JOURNEY'S JUST BEGINNING
TIME TO MOVE ON AHEAD AND DRIVE 


chorus 2:
Asus2                   E
IT'S RAINING NOW 
Bsus4                                Dsus2         Asus2
BUT I KNOW IT'S JUST A MATTER OF TIME
Asus2          E  
LET IT POUR 
Bsus4
I'LL SOAK IT IN 
Dsus2                 Asus2
I'M READY THIS TIME 
(end in Asus2).


do rate.:-)
http://sandeshadvani.blogspot.com/2008/08/dream-out-loud-human-race.html
Tap to rate this tab
 
# A B C D E F G H I J K L M N O P Q R S T U V W X Y Z