Song name
# A B C D E F G H I J K L M N O P Q R S T U V W X Y Z

Dream Theater - The Count Of Tuscany tab

-------------------------------------------------------------------------------
	The Count Of Tuscany (intro solo)- Dream Theater
[] means pinch harmonic
-------------------------------------------------------------------------------
Tabbed by:DTTelecaster
Email:albragdon@hotmail.com

Tuning:Standard


e|---------------------------------------------------------------------------|
B|---------------------------------------------------------------------------|
G|---------------------------------------------------------------------------|
D|--/6~\----/-6-8-9-8b(9)8---------9--11h13-11~-[11]~------8-9-/11\-9~-------|
A|--------------------------9~--/9---------------------/9--------------------|
E|---------------------------------------------------------------------------|

e|---------------------------------------------------------------------------|
B|---------------------------------------------------------------------------|
G|--/9-8-9~----------8-9-11-13~----\8-8h9-8~---------------------------------|
D|-----------8-9-11----------------------------------------------------------|
A|---------------------------------------------------------------------------|
E|---------------------------------------------------------------------------|

e|----------------------------------------19-18-16---------------------------|
B|-----19-----17------------------------------------19-17-16-17-16h17p16-----|
G|------------------20---18----16--------------------------------------------|
D|--/-----16-----16----16---16----16-----------------------------------------|
A|---------------------------------------------------------------------------|
E|---------------------------------------------------------------------------|

e|---------------------------------------------------------------------------|
B|------------------------16b(17)-16-----------------------------------------|
G|--18-16-15--------------------------16~------------------------------------|
D|-------------18-16-14------------------------------------------------------|
A|---------------------------------------------------------------------------|
E|---------------------------------------------------------------------------|

e|---------------------------------------------------------------------------|
B|----------------------16-17-19-17-16---------------------------------------|
G|------------15-16-18------------------\16-\11-/13~-------------------------|
D|--14-16-18-----------------------------------------------------------------|
A|---------------------------------------------------------------------------|
E|---------------------------------------------------------------------------|




| /  slide up
| \  slide down
| h  hammer-on
| p  pull-off
| ~  vibrato
| +  harmonic
| x  Mute note

===============================================================================
Tap to rate this tab
# A B C D E F G H I J K L M N O P Q R S T U V W X Y Z