Song name
# A B C D E F G H I J K L M N O P Q R S T U V W X Y Z

Dream Theater - The Count Of Tuscany tab

-------------------------------------------------------------------------------
			     The Count Of Tuscany - Dream Theater
-------------------------------------------------------------------------------
Tabbed by: Diogo Saraiva
Email: diogosaraiva_5@hotmail.com

The album leaked and it's awesome and there are no tabs of this yet.
So here you go.

I'm pretty sure some parts are wrong so comment away!

I apologize for not doing the post-solo acoustic part right now.
If I can find the time (and the edit button) I will tab it.

-Acoustic-
Repeat each riff twice.
e|--------------|------------|-----------|-----------|
B|-----0--------|-----0------|-----0-----|-----0-----|
G|-------3------|-------3----|-------3---|-------3---|
D|---4-----4----|---4-----4--|---4-----4-|---4-----4-|
A|--------------|-2----------|-----------|-----------|
E|-4------------|------------|-2---------|-0---------|

e|------------------------------------------0-------|
B|-----0----------0-------------2---------4---0-4---|
G|-------3----------3-------------------------------|
D|---4-----4----4-----4-------4---4-----4-----------|
A|--------------------------1-------1-2-------------|
E|-4----------4-------------------------------------|

e|-------------------------------|
B|------0-------------0-------0--|
G|--------3-----------------3----|
D|---4------4------4-------------|
A|-------------------------------|
E|-0------------0--------2-------|

Solo
e|---------------------------------------------------------|
B|---------------------------------------------------------|
G|----------------------------------6h7p6------<6>---------|
D|--/6~-------6-8-9-8b9--8--------9------------------------|
A|-------------------------9---/9--------------------------|
E|---------------------------------------------------------|

e|----------------------------------------------------|
B|--------------/5-4-5------------------9~----4h5-4---|
G|----3-4-4h6h4------------------8-9-11---------------|
D|-/4---------------------8-9-11----------------------|
A|----------------------------------------------------|
E|----------------------------------------------------|

e|-----14-----12--------------------------19-17-16----------------------------|
B|------------------16----14----12-----------------19-17-16-17p16h17p16h17p16-|
G|-/11-----11----11----11----11-----------------------------------------------|
D|----------------------------------------------------------------------------|
A|----------------------------------------------------------------------------|
E|----------------------------------------------------------------------------|

e|------------------------------------------------|
B|------------------16b17-16----------------------|
G|--18-16-14-----------------16-------------------|
D|-----------18-14--------------------------------|
A|------------------------------------------------|
E|------------------------------------------------|

e|--------------------------14----------------------|
B|--------------------14-16----17--16---------------|
G|-----------14-16-17-----------------\16-11-11/13~-|
D|-14-16-18-----------------------------------------|
A|--------------------------------------------------|
E|--------------------------------------------------|


| /  slide up
| \  slide down
| h  hammer-on
| p  pull-off
| ~  vibrato
| +  harmonic
| x  Mute note
|<7> artificial harmonic
===============================================================================
Tap to rate this tab
 
# A B C D E F G H I J K L M N O P Q R S T U V W X Y Z