Guitaretab - guitar tabs
Song name
# A B C D E F G H I J K L M N O P Q R S T U V W X Y Z

Drifters - There Goes My Baby tab

Highlighted       Show chord diagrams
----------------------------------------------------------------------------
	          There Goes My Baby - The Drifters
----------------------------------------------------------------------------
Tabbed by: adslam3

This is one of my favorite "old time" songs. I believe there isn't even
guitar in the song, but if you follow this and play along then you can
perform it on your own for fun or whatever, it still accompanies well.

Tuning: Standard

CAPO on 2!! (all chords relative to capo)
- I will not be showing strumming as the changes can easily be heard.
This is a simple rhythm.
Intro (0:00 - 0:15)
    G        Em         C        D    D7
e|--3--------0----------0--------2----2-------------------------------------|
B|--3--------0----------1--------3----1-------------------------------------|
G|--0--------0----------0--------2----2-------------------------------------|
D|--0--------2----------2--------0----0-------------------------------------|
A|--2--------2----------3---------------------------------------------------|
E|--3--------0----------0---------------------------------------------------|

Verse 1 (0:15 - 0:45)
    G        Em        C        D
e|--3--------0---------0--------2-------------------------------------------|
B|--3--------0---------1--------3-------------------------------------------|
G|--0--------0---------0--------2-------------------------------------------|
D|--0--------2---------2--------0-------------------------------------------|
A|--2--------2---------3----------------------------------------------------|
E|--3--------0---------0----------------------------------------------------|
[ Tab from: http://www.guitaretab.com/d/drifters/179777.html ]
    G        Em        C        D    D7
e|--3--------0---------0--------2----2--------------------------------------|
B|--3--------0---------1--------3----1--------------------------------------|
G|--0--------0---------0--------2----2--------------------------------------|
D|--0--------2---------2--------0----0--------------------------------------|
A|--2--------2---------3----------------------------------------------------|
E|--3--------0---------0----------------------------------------------------|

Chorus (0:45 - 0:59)
    G        Em        C        D    D7
e|--3--------0---------0--------2----2--------------------------------------|
B|--3--------0---------1--------3----1--------------------------------------|
G|--0--------0---------0--------2----2--------------------------------------|
D|--0--------2---------2--------0----0--------------------------------------|
A|--2--------2---------3----------------------------------------------------|
E|--3--------0---------0----------------------------------------------------|
Now just do the verse and chorus again until end of song!
I told you it was easy.

*IF you DO NOT have/use a capo then try this.
**If you would rather play the Barre chords then those are in
parenthesis.
INTRO/CHORUS:
    A        F#m        D        E      E7
e|--0-(5)----2----------2-(5)----0-(7)--0-(7)------------------------------|
B|--2-(5)----2----------3-(7)----0-(9)--3-(9)------------------------------|
G|--2-(6)----2----------2-(7)----1-(9)--1-(7)------------------------------|
D|--2-(7)----4----------0-(7)----2-(9)--2-(9)------------------------------|
A|--0-(7)----4------------(5)----2-(7)--2-(7)------------------------------|
E|----(5)----2-------------------0------0----------------------------------|

Verse chords go in this progression: A, F#m, D, E, A, F#m, D, E, E7
Then back to chorus.
Have fun.


| /  slide up
| \  slide down
| h  hammer-on
| p  pull-off
| ~  vibrato
| +  harmonic
| x  Mute note
============================================================================
Related for There Goes My Baby tab
Advertisement will be closed in 10 seconds