Song name
# A B C D E F G H I J K L M N O P Q R S T U V W X Y Z

Dropkick Murphys - Amazing Grace tab

Help us improve GuitareTab! Take a short survey!
Dropkick Murphys-Amazing Grace
the guitar part is on top,the bagpipe part is at the bottom
.=palm mute


guitar part
intro
----11-11-15-13/11--15--15-13-11-----------11-11~-15-13/11--15-13h15-18-18~-|
-11-------------------------------13-11--11---------------------------------|
----------------------------------------------------------------------------|
----------------------------------------------------------------------------|
----------------------------------------------------------------------------|
----------------------------------------------------------------------------|

-15-18-18--15-13/11--15-13-11----------11-11-15-13/11-15-13-11-|
-----------------------------13-11-11--------------------------|
---------------------------------------------------------------|
---------------------------------------------------------------|
---------------------------------------------------------------|
---------------------------------------------------------------|

verse
-11-11--15--13-11---------11-11--15--18-18~--18--15--13-11-------11-11--15-13-11-|
-------------------13-11-----------------------------------13-11-----------------|
---------------------------------------------------------------------------------|
---------------------------------------------------------------------------------|
---------------------------------------------------------------------------------|
---------------------------------------------------------------------------------|

chorus                  -----------------(fast part)--------------|
---------------------------------------------15-18-15-13----------|
-13-15--13-16--13-15----13-16-13-16-13-16-13-------------16-13-11-|
------------------------------------------------------------------|
------------------------------------------------------------------|
------------------------------------------------------------------|
------------------------------------------------------------------|

end on
-15~--11~---|
------------|
------------|
------------|
------------|
------------|
Related for Amazing Grace tab